Song name
# A B C D E F G H I J K L M N O P Q R S T U V W X Y Z

Jet Set Satellite - Baby Cool Your Jets tab

Tuning: Drop D


main riff
E|-------------------------------| repeat this part 6 times
B|-------------------------------|                  =======
G|-------------------------------|
D|-------0-----------------------|
A|-----0---9---9---9\7-7-7/9-9-9-|
D|-4\5-----9---9---9\7-7-7/9-9-9-|


E|----------------|-----------------|---------------------------|
B|----------------|-----------------|---------------------------|
G|----------------|-----------------|---------------------------|
D|----------------|-----------------|---------------------------|
A|-3-3-3-3-3-3-3-3\2-2-2-2-2-2-2-2--|-9---9---9\7-7-7/9-9-9-----|
D|-3-3-3-3-3-3-3-3\2-2-2-2-2-2-2-2--|-9---9---9\7-7-7/9-9-9-----|


repeat the main riff again ...listen to the song to find out how often!
~JetSet~

(schildkroete29@web.de)
Tap to rate this tab
 
# A B C D E F G H I J K L M N O P Q R S T U V W X Y Z