Song name
# A B C D E F G H I J K L M N O P Q R S T U V W X Y Z

Jet Set Satellite - Best Way To Die tab

Band:  Jet Set Satellite 
Song:  Best Way To Die 
Album: Blueprint, 2000, Nettwerk Records, track 2 

drop D tuning 


main riff 
e|--------------------------------| 
B|--------------------------------| 
G|--------------------------------| 
D|--5-5-5-5-0--0--8-8-8-8-10--10--| 
A|--5-5-5-5-0--0--8-8-8-8-10--10--| 
E|--5-5-5-5-0--0--8-8-8-8-10--10--| 

slight variation in the chorus, but i think the main riff is also played behind 
this on another guitar: 
e|--------------------------------| 
B|--------------------------------| 
G|--------------------------------| 
D|--5-5-5-5-7--7--8-8-8-8-10--10--| 
A|--5-5-5-5-5--5--8-8-8-8-10--10--| 
E|--5-5-5-5-------8-8-8-8-10--10--| 

solo part 1: 
e|------------------------------| 
B|--10-8-10---------------------| 
G|-----------10-9-10------------| 
D|--------------------12-10-12--| 
A|------------------------------| 
E|------------------------------| 

solo part 2 (you're empty, i'm empty...) 
e|-------|-------|-------|-------| 
B|-------|-------|-------|-------| 
G|-------|-------|-------|-------| 
D|---0---|---0---|---8---|---5---| 
A|---0---|---0---|---8---|---5---| 
E|---0---|---0---|---8---|---5---| 
Tap to rate this tab
# A B C D E F G H I J K L M N O P Q R S T U V W X Y Z