Song name
# A B C D E F G H I J K L M N O P Q R S T U V W X Y Z

Jet - Timothy tab

Standard Tuning
x= muffle string

For the second guitar, just muck around until you get the right tremolo setting. My
friends thought I was crazy buying an acoustic guitar, but I showed them Rock on!


1st Verse
    1st guitar (acoustic)                   	    2nd guitar
E|-----------0-------0----|
B|-2---2-----2-------2----|
G|-2---2-----2-------2--0-|
D|-2—--2-------------2--0-|
A|-0-----------0—-0—-0—-0-|
E|------------------------|

E|-3---3-----3-------3----|
B|-3---3-----3-------3----|
G|-0---0-----0-------0----|
D|-0---0-----0-------0--0-|
A|-2---2-----2-2—-2-------|
E|-3---3-----3-3—-3-------|

E|-----2-------------2----|
B|-3---3-----3-------3----|
G|-2---2-------------2—-0-|
D|-0-----------0--0--0--0-|
A|-------------------0-—0-|
E|------------------------|

E|------------------0-0-0-|
B|-2---2----2-------2-2-2-|
G|-2---2----2---2---2-2-2-|
D|-2---2--------2---2-2-2-|
A|-0---0-----0--0---0-0-0-|
E|------------------------|

E|-----------0-------0----|
B|-2---2-----2-------2----|
G|-2---2-----2-------2--0-|
D|-2—--2-------------2--0-|
A|-0-----------0—-0—-0—-0-|
E|------------------------|

E|------3-—3-3-------3—---|
B|------3-—3-3-------3—---|
G|------0—-0-0-------0—-0-|
D|------0--0-0-------0—-0-|
A|-2-----------2—-2-------|
E|-3-----------3—-3-------|

E|------2------------2----|
B|------3----3-------3----|
G|-2----2—-2-2-------2--0-|
D|-0----0—-0-0-0—-0—-0-—0-|
A|----------------------0-|
E|------------------------|

E|-------------------0----|
B|-2---2----2--------2----|
G|-2---2----2----2---2----|
D|-2---2---------2---2----|
A|-0---0—-0--—0—-0---0--0-|
E|------------------------|


2nd Verse
“Timothy, we found your spaceship.”
E|------------------------|		    E|------------------------|
B|-3----3----3-------3—-0-|		    B|----------3-------------|
G|-4----4----4-------4—-0-|		    G|------4---------4-------|
A|-4----4—---4-------4—-0-|		    D|---------------------4--|
D|-2----2—-2-2-2—-2—-2-—2-|		    A|-2----------------------|
E|------------------------|		    E|------------------------|

E|------3—-3-3-------3----|		    E|------------------------|
B|------3-—3-3-------3----|		    B--------------3----------|
G|------0-—0-0-------0----|		    G|---------0--------------|
D|------0--0-0-------0----|		    D|-----0------------------|
A|-2-----------2--2-----0-|		    A|------------------------|
E|-3-----------3--3-------|		    E|-3----------------------|

E|------------------------|		    E|------------------------|
B|-3----3----3-------3—-0-|		    B|----------3-------------|
G|-4----4----4-------4—-0-|		    G|------4---------4-------|
A|-4----4—---4-------4—-0-|		    D|---------------------4--|
D|-2----2—-2-2-2—-2—-2-—2-|		    A|-2----------------------|
E|------------------------|		    E|------------------------|

E|-3----3---3--------3----|		    E|------------------------|
B|-3----3---3--------3----|		    B|-------------3----------|
G|-0----0---0--------0----|		    G|---------0--------------|
D|-0----0---0--------0—-0-|		    D|-----0------------------|
A|-2-----------2—-2-------|		    A|------------------------|
E|-3-----------3—-3-------|		    E|-3----------------------|

E|------2----2-------2----|		    E|-----------2------------|
B|------3----3-------3----|		    B|------3--------3--------|
G|-2----2—-2-2-------2--0-|		    G|--------------------2---|
D|-0-----—-0----—-0—-0-—0-|		    D|-0----------------------|
A|----------------------0-|		    A|------------------------|
E|------------------------|		    E|------------------------|

E|-----------0------------|		    E|------------------------|
B|-2----2--—-2-------2----|		    B|-------------2----------|
G|-2----2—-2---------2--0-|		    G|---------2--------------|
D|-2----2------------2—-0-|		    D|-----2------------------|
A|-0----0------0—-0—-0-—0-|		    A|-0----------------------|
E|------------------------|		    E|------------------------|


Pre Chorus
“Never used your head.”
E|-0----0------------0----|		    E|------------------------|
B|-1----1--1-1-------1----|		    B|---------1--------------|
G|-0----0--0-0-------0—-0-|		    G|------0---------0-------|
D|-2----2--2-2-------2--0-|		    D|------------------------|
A|-3----3------3--3—-3—-0-|		    A|-3----------------------|
E|------------------------|		    E|------------------------|

E|-----------0-------0----|		    E|------------------------|
B|-2----2--—-2-------2--0-|		    B|-------------2----------|
G|-2----2—-2-2-------2--0-|		    G|---------2--------------|
D|-2----2--2---------2—-0-|		    D|-----2------------------|
A|-0-------0---0—-0—---—0-|		    A|-0----------------------|
E|------------------------|		    E|------------------------|

E|-0----0------------0----|		    E|------------------------|
B|-1----1--1-1-------1----|		    B|---------1--------------|
G|-0----0--0-0-------0—-0-|		    G|------0---------0-------|
D|-2----2--2-2-------2--0-|		    D|---------------------2--|
A|-3----3------3--3—-3—-0-|		    A|-3----------------------|
E|------------------------|		    E|------------------------|

E|-0----0--0-0-3----3-----|            E|------------------------|
B|-2----2--2-2-3----3-----|            B|-------------2----------|
G|-2----2--2-2-0----0-----|            G|---------2--------------|
D|-2----2--2-2-0----0-----|            D|-----2------------------|
A|-0----0--0-0-2----x-----|            A|-0----------------------|
E|-------------3----2-----|            E|-----------------3----2-|


Chorus
“It’s not what it seems but it is.”               Clean
E|-0---0-----0-0—-0—-0—-0-|		    E|-----3---3--------3-3-3-|
B|-3---3-----3-3--3--3--3-|		    B|-----3---3--------3-3-3-|
G|-0---0-----0-0--0--0--0-|		    G|-----0---0--------0-0-0-|
D|-2---2-----2-2--2--2--2-|		    D|-----2---2--------2-2-2-|
A|-2---2-----2-2--2--2--2-|		    A|-2----------------------|
E|-0---0-----0-0--0--0-—0-|		    E|-0----------------------|

E|-2—-2----0------0-0-0-0-|		    E|-2--2-----0-----0-0-0-0-|
B|-3--3----2------2-2-2-2-|		    B|-3--3—-0—-2-----2-2-2-2-|
G|-2--2----2------2-2-2-2-|		    G|-2--2--0--2-----2-2-2-2-|
D|---------2------2-2-2-2-|		    D|-0--0--0--2-----2-2-2-2-|
A|---------0------0-0-0-0-|		    A|----------0-----0-0-0-0-|
E|------------------------|		    E|------------------------|

E|-0--0—-0----0--0--0—-0--0-0-|	    E|-----3---3--------3-3-3-|
B|-3--3--3----3--3--3--3--3-3-|	    B|-----3---3--------3-3-3-|
G|-0--0—-0----0--0--0—-0--0-0-|	    G|-----0---0--------0-0-0-|
D|-2--2—-2----2--2--2—-2--2-2-|	    D|-----2---2--------2-2-2-|
A|-2--2—-2----2--2--2—-2--2-2-|	    A|-2----------------------|
E|-0--0—-0----0--0--0—-0--0-0-|	    E|-0----------------------|
Play these bars 2x,


E|-2---2-------0----------|		    E|-2---2-------0-----------|
B|-3---3-------2----------|		    B|-3---3---0---2-----------|
G|-2---2-------2----------|		    G|-2---2---0---2-----------|
D|-------------2----------|		    D|---------0---2-----------|
A|-------------0----------|		    A|-------------0-----------|
E|------------------------|		    E|-------------------------|


The acoustic is the same as the 1st verse, but the electric guitar comes back with a new 
(Played clean)
2nd verse
“Timothy, we found your spaceship.”
E|----3-------------3-----|-------2-----------2-----|
B|----------------------3-|----------3-----------3--|
G|-0-----------0----------|----2-----------2--------|
D|------------------------|-0-----------0-----------|
A|------------------------|-------------------------|
E|------------------------|-------------------------|

E|------------------------|-------------------------|
B|-------2-----------2----|-------2-----------2-----|
G|----------2-----------2-|----------2-----------2--|
D|----2-----------2-------|----2-----------2--------|
A|-0-----------0----------|-0-----------0-----------|
E|------------------------|-------------------------|

E|-------3-----------3----|-------2-----------2-----|
B|----------3-------------|----------3-----------3--|
G|----0-----------0-------|----2-----------2--------|
D|------------------------|-0-----------0-----------|
A|------------------------|-------------------------|
E|-3-----------3----------|-------------------------|

E|------------------------|
B|-------2-----------2----|
G|----------2-----------2-|
D|----2-----------2-------|
A|-0-----------0----------|
E|------------------------|


Then they play the 1st bridge. The 1st and 2nd guitar play together, with the tremolo 
in occasionally.

1st bridge
E|--------3---------3-----|-3-----3-----------------|
B|--------3---------3-----|-3-----3----------2------|
G|--------0---------0-----|-0-----0----------2------|
D|-0----------------------|------------------2------|
A|-2----------------------|------------------0------|
E|-3----------------------|-------------------------|

E|--------3---------3-----|-------3-----------------|
B|--------3---------3-----|-------3----------2------|
G|--------0---------0-----|-------0----------2------|
D|-0----------------------|------------------2------|
A|-2----------------------|------------------0------|
E|-3----------------------|-------------------------|

E|-------3------3---3-----|-----3---3-----3---3-3-3-|
B|-------3------3---3-----|-----3---3-----3---3-3-3-|
G|-------0------0---0-----|-----0---0-----0---0-0-0-|
D|-0----------------------|--0------0-----0---0-0-0-|
A|-2----------------------|--2------2-----2---2-2-2-|
E|-3----------------------|--3------3-----3---3-3-3-|


2nd bridge
E|--------3---------3-----|-3-----3-----------------|
B|--------3---------3-----|-3-----3----------2------|
G|--------0---------0-----|-0-----0----------2------|
D|-0----------------------|------------------2------|
A|-2----------------------|------------------0------|
E|-3----------------------|-------------------------|

E|--------3---------3-----|-------3-----------------|
B|--------3---------3-----|-------3----------2------|
G|--------0---------0-----|-------0----------2------|
D|-0----------------------|------------------2------|
A|-2----------------------|------------------0------|
E|-3----------------------|-------------------------|

E|----------------------3-|---3---------------------|
B|-------3--------------3-|---3-------------2-------|
G|-------0--------------0-|---0-------------2-------|
D|----------------------0-|---0-------------2-------|
A|------------------------|---2-------------0-------|
E|-3-----------------3----|---3---------------------|

E|--3----------------------------------------------||
B|---3---------------------------------------------||
G|----0--------------------------------------------||
D|-----0-------------------------------------------||
A|------2------------------------------------------||
E|-------3-----------------------------------------||

ORDER:
1st VERSE
2nd VERSE
PRE CHORUS
CHORUS
3rd VERSE
PRE CHORUS
CHORUS
1st BRIDGE
CHORUS
2nd BRIDGE
Tap to rate this tab
 
# A B C D E F G H I J K L M N O P Q R S T U V W X Y Z