Guitaretab - guitar tabs
Song name
# A B C D E F G H I J K L M N O P Q R S T U V W X Y Z
Home / J / Jet / Rip It Up tab

Jet - Rip It Up tab

Band: Jet
Song: Rip It Up
Tabber: Mads Nicolai B.

Intro:
e|-55555---2--2--2--2---------|
B|-55555---2--2--2--2---------|
G|-66666---3--3--3--3---------|
D|-77777---4--4--4--4---------|
A|(77777)--4--4--4--4---------|
E|(55555)--2--2--2--2---------|

Verse 1:

both guitars

e|--2-------2---2-------2---2-------2---2-------2------------------|
B|--2-------2---2-------2---2-------2---2-------2------------------|
G|--3-------3---3-------3---3-------3---3-------3----Let the last--|
D|--4--(2)--4---4--(2)--4---4--(2)--4---4--(2)--4----chord ring----|
A|--4--(2)--4---4--(2)--4---4--(2)--4---4--(2)--4------------------|
E|--2---0---2---2---0---2---2---0---2---2---0---2------------------|

e|--4-4-4-4-4-4-4-4---7-7-7-7-7-7-7-7---2----------------------|
B|--4-4-4-4-4-4-4-4---7-7-7-7-7-7-7-7---2----------------------|
G|--5-5-5-5-5-5-5-5---8-8-8-8-8-8-8-8---3----Let the last------|
D|--6-6-6-6-6-6-6-6---9-9-9-9-9-9-9-9---4----chord ring--------|
A|--6-6-6-6-6-6-6-6---9-9-9-9-9-9-9-9---4----------------------|
E|--4-4-4-4-4-4-4-4---7-7-7-7-7-7-7-7---2----------------------|

Guitar 2: comes in when the other guitar plays the F# chord

e|--------------------------------------------|
B|---7--------7----7--------------------------|
G|---9b11-11--9b11-9b11--11b9-----------------|
D|--------------------------------------------|
A|--------------------------------------------|
E|--------------------------------------------|

both guitars

e|--------------------------------------------|
B|--9---9---9---9---9-9-----------------------|
G|--9---9---9---9---9-9-----------------------|
D|--9---9---9---9---9-9-----------------------|
A|--7---7---7---7---7-7-----------------------|
E|--------------------------------------------|


Verse 2:

guitar 1

e|--2-------2-------2----------------------------|
B|--2-------2-------2----------------------------|
G|--3-------3-------3----------------------------|
D|--4---(2)-4---(2)-4----------------------------|  x2
A|--4---(2)-4---(2)-4----------------------------|
E|--2----0--2----0--2----------------------------|

guitar 2

e|-----------------------------------------------|
B|-----------------------------------------------|
G|-----------------------------------------------|
D|---7-9-----7-9------7-9-7-4-9-7-9-x-x-x--------|  x2
A|---7-9-----7-9------7-9-7-4-9-7-9-x-x-x--------|
E|---5-7-----5-7------5-7-5-2-7-5-7-x-x-x--------|

both guitars

e|--4-4-4-4-4-4-4-4---7-7-7-7-7-7-7-7---2---------------------|
B|--4-4-4-4-4-4-4-4---7-7-7-7-7-7-7-7---2---------------------|
G|--5-5-5-5-5-5-5-5---8-8-8-8-8-8-8-8---3----Let the last-----|
D|--6-6-6-6-6-6-6-6---9-9-9-9-9-9-9-9---4----chord ring-------|
A|--6-6-6-6-6-6-6-6---9-9-9-9-9-9-9-9---4---------------------|
E|--4-4-4-4-4-4-4-4---7-7-7-7-7-7-7-7---2---------------------|

Guitar 2 solo: comes in when the other guitar plays the F# chord

e|----------------------------------------------|
B|---10-----------------------------------------|
G|---12b14--------------------------------------|
D|-------------9b11-9-7-9---9b9b9p7---7b9------|
A|-----------------------------------9------9---|
E|----------------------------------------------|

both guitars

e|--7-7-7-7-7--------------------|
B|--7-7-7-7-7--------------------|
G|--8-8-8-8-8--------------------|
D|--9-9-9-9-9--------------------|
A|--9-9-9-9-9--------------------|
E|--7-7-7-7-7--------------------|

Chorus: both guitars

e|--2-2-2-2-2-2--5-5-5-5-5-5------------------------------|
B|--2-2-2-2-2-2--5-5-5-5-5-5--9-9-9-9-9-9--4-4-4-4-4-4----|
G|--3-3-3-3-3-3--6-6-6-6-6-6--9-9-9-9-9-9--4-4-4-4-4-4----|
D|--4-4-4-4-4-4--7-7-7-7-7-7--9-9-9-9-9-9--4-4-4-4-4-4----|  2x
A|--4-4-4-4-4-4--7-7-7-7-7-7--7-7-7-7-7-7--2-2-2-2-2-2----|
E|--2-2-2-2-2-2--5-5-5-5-5-5------------------------------|

   F#          A
Get on your feet boys
   Em                 B
Rip it up, rip it up if your ever gonna make it!
   F#         A
Get on your feet girls
   Em                 B
Rip it up, rip it up if your ever gonna make it!

Vers 3: guitar 1

e|---2---2---2---2----55555----------------------------|
B|---2---2---2---2----55555----------------------------|
G|---3---3---3---3----66666----------------------------|
D|---4---4---4---4----77777----------------------------|
A|--(4)-(4)-(4)-(4)--(77777)---------------------------|
E|--(2)-(2)-(2)-(2)--(55555)---------------------------|

e|--2--5-7-----2--5-7-----2--5-7-5-2-7-5-7--------------------|
B|--2--5-7-----2--5-7-----2--5-7-5-2-7-5-7--------------------|
G|--3--6-8-----3--6-8-----3--6-8-6-3-8-6-8--------------------|
D|--4--7-9-(2)-4--7-9-(2)-4--7-9-7-4-9-7-9--------------------|  x2
A|--4--7-9-(2)-4--7-9-(2)-4--7-9-7-4-9-7-9--------------------|
E|--2--5-7--0--2--5-7--0--2--5-7-5-2-7-5-7--------------------|

guitar 2: comes in when the other guitar plays the last B chord 1. time only
[ Tab from: http://www.guitaretab.com/j/jet/149594.html ]
e|--------------------------------------------|
B|--------------------------------------------|
G|--------------------------------------------|
D|--------------------------------------------|
A|---9-7--------------------------------------|
E|-------9-7----------------------------------|

both guitars

e|--4-4-4-4-4-4-4-4---7-7-7-7-7-7-7-7---2---------------------|
B|--4-4-4-4-4-4-4-4---7-7-7-7-7-7-7-7---2---------------------|
G|--5-5-5-5-5-5-5-5---8-8-8-8-8-8-8-8---3----Let the last-----|
D|--6-6-6-6-6-6-6-6---9-9-9-9-9-9-9-9---4----chord ring-------|
A|--6-6-6-6-6-6-6-6---9-9-9-9-9-9-9-9---4---------------------|
E|--4-4-4-4-4-4-4-4---7-7-7-7-7-7-7-7---2---------------------|

Guitar 2 solo 2: comes in when the other guitar plays the F# chord

e|----------------------------------------------|
B|---7------------------------------------------|
G|---9b11--~9~7---------------------------------|
D|----------------------------------------------|
A|----------------------------------------------|
E|----------------------------------------------|

both guitars

e|--7-7-7-7-7--------------------|
B|--7-7-7-7-7--------------------|
G|--8-8-8-8-8--------------------|
D|--9-9-9-9-9--------------------|
A|--9-9-9-9-9--------------------|
E|--7-7-7-7-7--------------------|

Chorus: both guitars

e|--2-2-2-2-2-2--5-5-5-5-5-5------------------------------|
B|--2-2-2-2-2-2--5-5-5-5-5-5--9-9-9-9-9-9--4-4-4-4-4-4----|
G|--3-3-3-3-3-3--6-6-6-6-6-6--9-9-9-9-9-9--4-4-4-4-4-4----|
D|--4-4-4-4-4-4--7-7-7-7-7-7--9-9-9-9-9-9--4-4-4-4-4-4----|  x2
A|--4-4-4-4-4-4--7-7-7-7-7-7--7-7-7-7-7-7--2-2-2-2-2-2----|
E|--2-2-2-2-2-2--5-5-5-5-5-5------------------------------|

e|--------------------------------------------------------|
B|--7-7-7-7-7-7-7-7--9-9-9-9-9-9-9-9--4-------------------|
G|--7-7-7-7-7-7-7-7--9-9-9-9-9-9-9-9--4---Let the last----|
D|--7-7-7-7-7-7-7-7--9-9-9-9-9-9-9-9--4---chord ring------|
A|--5-5-5-5-5-5-5-5--7-7-7-7-7-7-7-7--2-------------------|
E|--------------------------------------------------------|

   F#          A
Get on your feet boys
   Em                 B
Rip it up, rip it up if your ever gonna make it!
   F#         A
Get on your feet girls
   Em                 B
Rip it up, rip it up if your ever gonna make it!
    D
Rip it up, rip it up, rip it uuup!
    E                              B
Rip it up, rip it up, rip it uuup!

Bridge: guitar 1
                                       
e|--------------------------------------------------|
B|--------------------------------------------------|
G|--------------------------------------------------|
D|--------------------------------------------------|
A|--777-5-----------------777-5------------7--------|
E|--------7-5-3b3-0-3-00--------7-5-3b3-0---------|

e|--------------------------------------------------|
B|--------------------------------------------------|
G|--------------------------------------------------|
D|--------------------------------------------------|
A|--777-5--------------------777-5------------7-----|
E|--------7-5-3b3-0-3b3-00--------7-5-3b3-0------|

both guitars

e|--------------------------------------------------|
B|--------------------------------------------------|
G|--------------------------------------------------|
D|--------------------------------------------------|
A|--777-5-----------------777-5------------7--------|
E|--------7-5-3b3-0-3-00--------7-5-3b3-0---------|

e|--------------------------------------------5---------------|
B|--------------------------------------------5---------------|
G|--------------------------------------------6----Let the----|
D|--------------------------------------------7---chord ring--|
A|--777-5-----------------777-5---------------7---------------|
E|--------7-5-3b3-0-3-00--------7-5-3b3-0---5---------------|

e|--7-7-7-7-7--------------------|
B|--7-7-7-7-7--------------------|
G|--8-8-8-8-8--------------------|
D|--9-9-9-9-9--------------------|
A|--9-9-9-9-9--------------------|
E|--7-7-7-7-7--------------------|

Chorus: both guitars

e|--2-2-2-2-2-2--5-5-5-5-5-5------------------------------|
B|--2-2-2-2-2-2--5-5-5-5-5-5--9-9-9-9-9-9--4-4-4-4-4-4----|
G|--3-3-3-3-3-3--6-6-6-6-6-6--9-9-9-9-9-9--4-4-4-4-4-4----|
D|--4-4-4-4-4-4--7-7-7-7-7-7--9-9-9-9-9-9--4-4-4-4-4-4----|  x4
A|--4-4-4-4-4-4--7-7-7-7-7-7--7-7-7-7-7-7--2-2-2-2-2-2----|
E|--2-2-2-2-2-2--5-5-5-5-5-5------------------------------|

e|------------------------------------2--------------------|
B|--7-7-7-7-7-7-7-7--9-9-9-9-9-9-9-9--2--------------------|
G|--7-7-7-7-7-7-7-7--9-9-9-9-9-9-9-9--3---Let the last-----|
D|--7-7-7-7-7-7-7-7--9-9-9-9-9-9-9-9--4---chord ring-------|
A|--5-5-5-5-5-5-5-5--7-7-7-7-7-7-7-7--4--------------------|
E|------------------------------------2--------------------|

   F#          A
Get on your feet boys
   Em                 B
Rip it up, rip it up if your ever gonna make it!
   F#         A
Get on your feet girls
   Em                 B
Rip it up, rip it up if your ever gonna make it!
    D
Rip it up, rip it up, rip it uuup!
    E                              F#
Rip it up, rip it up, rip it uuup!








Related for Rip It Up tab