Song name
# A B C D E F G H I J K L M N O P Q R S T U V W X Y Z

Jet - Skin And Bones tab

-------------------------------------------------------------------------------
			     Skin & Bones - JET
-------------------------------------------------------------------------------
Tabbed by:JET21
Email:Mikemrules9@msn.com

Tuning:standard

well, i dont think anyone's figured this one out... 'til now

e|--------------------------------------------------------------------------|
B|------------------------------------------------------------------12------|
G|-9-----9--9----9-----------------------9-11p9---11brp9-11-9-11-11b--11r---|
D|-9h11--9--9h11-9h11--9----9-------9h11------------------------------------|
A|---------------------9h11-9h11--------------------------------------------|
E|--------------------------------------------------------------------------|

e|------------------12----12------12--12----12-------------------------------|
B|------------12h14---14--12h14---12--12h14-12h14--12----12------------------|
G|-9-----------------------------------------------11h13-11h13---------------|
D|---13-11-------------------------------------------------------------------|
A|---------------------------------------------------------------------------|
E|---------------------------------------------------------------------------|

e|--------12-14p12--14b-14b-14b--12----------------12-----------------------|
B|--12h14---------------------------16-14-12-12h14----14-12h14--------------|
G|--------------------------------------------------------------------------|
D|--------------------------------------------------------------------------|
A|--------------------------------------------------------------------------|
E|--------------------------------------------------------------------------|




| /  slide up
| \  slide down
| h  hammer-on
| p  pull-off
| ~  vibrato
| +  harmonic
| x  Mute note
===============================================================================
Tap to rate this tab
# A B C D E F G H I J K L M N O P Q R S T U V W X Y Z