Song name
# A B C D E F G H I J K L M N O P Q R S T U V W X Y Z

Jet - Shes A Genius tab

Jet 
She's a Genius

Tabbed by Steve Collins & Alex Kelly                                                    

alexk@pinebelt.net                                                                     
                                             

Intro
e---------------------------|-----------------------------|
B---------------------------|-----------------------------|
G---------------------------|-----------------------------|
D---------------------------|-----------------------------|
A---7-7-----7-5-7-7---------|-----7-7-----7-5-7-7---------|
E-------0-0---------0-3-0-5-|--------0-0---------0-3-0-5--|

e---------------------------|-----------------------------|
B---------------------------|-----------------------------|
G---------------------------|-----------------------------|
D---------------------------|-----------------------------|
A---7-7-----7-5-7-7---------|-----7-7-----7-5-7-7---------|
E-------0-0---------0-3-0-5-|--------0-0---------0-3-0-5--|

My girl's ready to take control she just blows my mind
e---------------------------|-----------------------------|
B---------------------------|-----------------------------|
G---9-9-9-9-----------------|----------------9-9-9-9-9----|
D---9-9-9-9--5-7-7-7-7-7--5-|--7-7-7-7-7--5--9-9-9-9-9-7--|
A---7-7-7-7--5-7-7-7-7-7--5-|--7-7-7-7-7--5--7-7-7-7-7-7--|
E------------3-5-5-5-5-5--3-|--5-5-5-5-5--3------------5--|

She only listens to the radio to see who's alive
e---------------------------|-----------------------------|
B---------------------------|-----------------------------|
G---9-9-9-9-----------------|----------------9-9-9-9-9----|
D---9-9-9-9--5-7-7-7-7-7--5-|--7-7-7-7-7--5--9-9-9-9-9--7-|
A---7-7-7-7--5-7-7-7-7-7--5-|--7-7-7-7-7--5--7-7-7-7-7--7-|
E------------3-5-5-5-5-5--3-|--5-5-5-5-5--3-----------0-5-|

yeah
e---------------------------|
B---------------------------|
G------------------------7--|
D---------------------5--7--|
A---7-7-----7-5-7-7---5--5--|
E-------0-0---------0-3-----|

She wakes up scared of getting of getting old...
e---------------------------|-----------------------------|
B---------------------------|-----------------------------|
G---9-9-9-9-----------------|----------------9-9-9-9-9----|
D---9-9-9-9--5-7-7-7-7-7--5-|--7-7-7-7-7--5--9-9-9-9-9-7--|
A---7-7-7-7--5-7-7-7-7-7--5-|--7-7-7-7-7--5--7-7-7-7-7-7--|
E------------3-5-5-5-5-5--3-|--5-5-5-5-5--3------------5--|

She knows so many pretty boys...
e---------------------------|-----------------------------|
B---------------------------|-----------------------------|
G---9-9-9-9-----------------|---------7-7-----------------|
D---9-9-9-9--5-7-7-7-7-7--5-|---9-----7-7------7----------|
A---7-7-7-7--5-7-7-7-7-7--5-|---9-----5-5------7----------|
E------------3-5-5-5-5-5--3-|---7--------------5----------|

That girl's a genius
e---------------------------|-----------------------------|
B---------------------------|-----------------------------|
G---5-5--5-5-5--7-7--4-7-9--|---9-9--9-9-9--9-9--9-9-9----|
D---5-5--5-5-5--7-7--4-7-9--|---9-9--9-9-9--9-9--9-9-9----|
A---3-3--3-3-3--5-5--2-5-7--|---7-7--7-7-7--7-7--7-7-7----|
E---------------------------|-----------------------------|

I think she's serious
e---------------------------|-----------------------------|
B---------------------------|-----------------------------|
G---5-5--5-5-5--7-7--4-7-4--|---4-4--4-4-4-4-4-4-4-4-4-4--|
D---5-5--5-5-5--7-7--4-7-4--|---4-4--4-4-4-4-4-4-4-4-4-4--|
A---3-3--3-3-3--5-5--2-5-2--|---2-2--2-2-2-2-2-2-2-2-2-2--|
E---------------------------|-----------------------------|

e---------------------------|-----------------------------|
B---------------------------|-----------------------------|
G---------------------------|-----------------------------|
D---------------------------|-----------------------------|
A---7-7-----7-5-7-7---------|-----7-7-----7-5-7-7---------|
E-------0-0---------0-3-0-5-|--------0-0---------0-3-0-5--|

If what you know is who you are then she's everything
e---------------------------|-----------------------------|
B---------------------------|-----------------------------|
G---9-9-9-9-----------------|----------------9-9-9-9-9----|
D---9-9-9-9--5-7-7-7-7-7--5-|--7-7-7-7-7--5--9-9-9-9-9-7--|
A---7-7-7-7--5-7-7-7-7-7--5-|--7-7-7-7-7--5--7-7-7-7-7-7--|
E------------3-5-5-5-5-5--3-|--5-5-5-5-5--3------------5--|

You don't need an education to know what class that you're in
e---------------------------|-----------------------------|
B---------------------------|-----------------------------|
G---9-9-9-9-----------------|----------------9-9-9-9-9----|
D---9-9-9-9--5-7-7-7-7-7--5-|--7-7-7-7-7--5--9-9-9-9-9-7--|
A---7-7-7-7--5-7-7-7-7-7--5-|--7-7-7-7-7--5--7-7-7-7-7-7--|
E------------3-5-5-5-5-5--3-|--5-5-5-5-5--3------------5--|

They said hey there girl tell me whatta ya do...
e-----------------------------|
B-----------------------------|
G-----------------------------|
D---9-----5-5------7----------|
A---9-----5-5------7----------|
E---7-----3-3------5----------|

The rest kinda repeats... see sections above

Tap to rate this tab
# A B C D E F G H I J K L M N O P Q R S T U V W X Y Z