Song name
# A B C D E F G H I J K L M N O P Q R S T U V W X Y Z

Jet - Start The Show tab

-------------------------------------------------------------------------------
			     START THE SHOW - Jet
-------------------------------------------------------------------------------
Tabbed by: Jumpeplowski
Email: jumpeplowski@hotmail.com

Tuning: Standard

INTRO
e|-----------------------------------------------------------------------------------|
B|-----------------------------------------------------------------------------------|
G|7--9----12------12----12--9----7------7--------------------------------------------|x2
D|7--9----12------12----12--9----5------5----9--5----7------7----7--5----2-----------|
A|5--7----10------10----10--7----5------5----7--5----7------7----7--3----2-----------|
E|-------------------------------------------0--3----5------5----5--3----0-----------|

VERSE
e|----------------------------------------------------------------|
B|----------------------------------------------------------------|
G|---------------------------------------------------9---777--66--|x2
D|---------------------------------------------------9---555--44--|
A|------------5/7-------------5/7-------------5/7----7---555--44--| Note: Low E notes are optional
E|0-0-0-0-0-------0-0-0-0-0-------0-0-0-0-0-----------------------| because the bass plays them

e|---------------------------|   e|------------------------------|
B|---------------------------|   B|------------------------------|
G|7--9------9------9------9--|x3 G|7--9------9------9------9--9--|x1
D|7--9------9------9------9--|   D|7--9------9------9------9--9--|
A|5--7------7------7------7--|   A|5--7------7------7------7--7--|
E|---------------------------|   E|------------------------------|

PRE-CHORUS
e|------------------------------------------------|
B|------------------------------------------------|
G|7---9-------9---7-------7---6-------6---9-------|x1
D|7---9-------9---7-------7---6-------6---9-------|
A|------------------------------------------------|
E|------------------------------------------------|

CHORUS
e|-----------------------------------------------------------------------------------|
B|-----------------------------------------------------------------------------------|
G|7--9----12------12----12--9----7------7--------------------------------------------|x2
D|7--9----12------12----12--9----5------5----9--5----7------7----7--5----2-----------|
A|5--7----10------10----10--7----5------5----7--5----7------7----7--3----2-----------|
E|-------------------------------------------0--3----5------5----5--3----0-----------|

VERSE
e|----------------------------------------------------------------|
B|----------------------------------------------------------------|
G|---------------------------------------------------9---777--66--|x2
D|---------------------------------------------------9---555--44--|
A|------------5/7-------------5/7-------------5/7----7---555--44--|
E|0-0-0-0-0-------0-0-0-0-0-------0-0-0-0-0-----------------------|

e|---------------------------|   e|------------------------------|
B|---------------------------|   B|------------------------------|
G|7--9------9------9------9--|x3 G|7--9------9------9------9--9--|x1
D|7--9------9------9------9--|   D|7--9------9------9------9--9--|
A|5--7------7------7------7--|   A|5--7------7------7------7--7--|
E|---------------------------|   E|------------------------------|

PRE-CHORUS
e|------------------------------------------------|
B|------------------------------------------------|
G|7---9-------9---7-------7---6-------6---9-------|x1
D|7---9-------9---7-------7---6-------6---9-------|
A|------------------------------------------------|
E|------------------------------------------------|

CHORUS
e|-----------------------------------------------------------------------------------|
B|-----------------------------------------------------------------------------------|
G|7--9----12------12----12--9----7------7--------------------------------------------|x2
D|7--9----12------12----12--9----5------5----9--5----7------7----7--5----2-----------|
A|5--7----10------10----10--7----5------5----7--5----7------7----7--3----2-----------|
E|-------------------------------------------0--3----5------5----5--3----0-----------|

BRIDGE
e|--------------------------------|
B|--------------------------------|
G|--------------------------------|x8
D|0---------------0---------------|
A|----7-------7-------7-----7-----|
E|--------7-----7-------7-------7-|

This is played by a second guitar after 4 repeats of the above line.
e|------------------------------------------------------------------|
B|------------------------------------------------------------------|
G|------------------------------------------------------------------|x2
D|2----------------5--------------7----------------2----------------|
A|2----------------5--------------7----------------2----------------|
E|0----------------3--------------5----------------0----------------|

SOLO/CHORUS (second guitar solos during the first 2 repeats)
e|-----------------------------------------------------------------------------------|
B|-----------------------------------------------------------------------------------|
G|7--9----12------12----12--9----7------7--------------------------------------------|x3
D|7--9----12------12----12--9----5------5----9--5----7------7----7--5----2-----------|
A|5--7----10------10----10--7----5------5----7--5----7------7----7--3----2-----------|
E|-------------------------------------------0--3----5------5----5--3----0-----------|

e|---------------------------------------------------------------|
B|---------------------------------------------------------------|
G|7--9----12------12----12--9----7------7------------------------|x1
D|7--9----12------12----12--9----5------5----9--5----7-----------|
A|5--7----10------10----10--7----5------5----7--5----7-----------|
E|-------------------------------------------0--3----5-----------|

(Looooong pause)

e|---------------------|
B|---------------------|
G|---------------------|x1
D|7--5--5--2-----------|
A|7--3--3--2-----------|
E|5--3--3--0-----------|



| /  slide up
| \  slide down
| h  hammer-on
| p  pull-off
| ~  vibrato
| +  harmonic
| x  Mute note
===============================================================================
Tap to rate this tab
# A B C D E F G H I J K L M N O P Q R S T U V W X Y Z