Song name
# A B C D E F G H I J K L M N O P Q R S T U V W X Y Z

Jet - Start The Show tab

Start the Show Solo

Standard EADGBE tuning

Solo
e|---------------------------------------------------------------------------12------|
B|12---12---12---12-------------------------------------------------------12---------|
G|14b--14b--14b--14b---14-14b-14-12-14---------14b-14-12---------------14b-----------|
D|-------------------------------------------------------14-14-----------------------|
A|-----------------------------------------------------------------------------------|
E|-----------------------------------------------------------------------------------|

e|--------12---------12--------------------------------------------------------------|
B|-----12--------12------------------------------------------------------------------|
G|-14b-------14b---------14b-14--14b--14-------14-14b-14-12-14------14b-14-12--------|
D|----------------------------------------------------------------------------14-14--|
A|-----------------------------------------------------------------------------------|
E|-----------------------------------------------------------------------------------|

Submitted mmy Cheekymonkeyman@hotmail.co.uk
Tap to rate this tab
 
# A B C D E F G H I J K L M N O P Q R S T U V W X Y Z