Song name
# A B C D E F G H I J K L M N O P Q R S T U V W X Y Z

Jet - Shess A Genius tab

----------------------------------------------------------------------------
			     SHE'S A GENIUS - Jet
----------------------------------------------------------------------------
Tabbed by: Sam Britt (2guitargod4)
Email: sam.rocks.123@hotmail.com

Tuning: standard (EADGBe)

Before the solo there is something it want to tab out that none of the other tabs have 
up on.
In the chorus the lead guitar plays 2 fills. If u listen carefully u will hear them
No.1
e|------------------------|
B|-8h10-10-10-10p8-8-8----|
G|-9----9--9--9----9-9----|
D|------------------------|
A|------------------------|
E|------------------------|
No.2
e|----------12-12----------12-12-------12~----|
B|-15b17r15-------15b17r15-------15b17--------|
G|--------------------------------------------|
D|--------------------------------------------|
A|--------------------------------------------|
E|--------------------------------------------|

K HERES THE SOLO

          hold bend                    pretty fast
e|-------------------------------------------------5------5------5-0-(0)----|
B|-------------------------------------------------8b10r8-8b10r8-5-0-(0)----|
G|----------------------------------------7b9r7-----------------------------|
D|-7b-b-b-b9-9-9-9-9~r7-5-7--7b9r7p5------------9---------------------------|
A|-----------------------------------7-5------------------------------------|
E|--------------------------------------------------------------------------|

e|-15b17-15----15b17-15-15b17-15----12--------------------------------------|
B|-------------------------------------15-17~--15-12------------------------|
G|---------------------------------------------------14b16-12-14b16-14------|
D|--------------------------------------------------------------------------|
A|--------------------------------------------------------------------------|
E|--------------------------------------------------------------------------|

e|--------------------------------------------------------------------------|
B|--------------------------------------------------------------------------|
G|-12-14-<16>---------------------------------------------------------------|
D|---------------------14-13~-----7-----------------------------------------|
A|--------------------------------7-----------------------------------------|
E|--------------------------------5-----------------------------------------|

I like to solo over the rest of the song using E minor pentatonic
15 12
15 12
14 12
14 12
14 12
15 12

HOPE THIS HELPED...XD!

| /     slide up
| \     slide down
| h     hammer-on
| p     pull-off
| ~     vibrato
| <16>  pinch harmonic
| b     bend
| r     release
============================================================================
Tap to rate this tab
 
# A B C D E F G H I J K L M N O P Q R S T U V W X Y Z