Song name
# A B C D E F G H I J K L M N O P Q R S T U V W X Y Z

Jet - Beat On Repeat tab

Song: Beat On Repeat
Band: Jet
Tab By: Taytaytay                        Please Rate

Tab Legend
d= Delay
~= Let Ring

Intro
-2d-----------2d--------------------------------------|
-2d-----------2d-----------17-------------------------|
---------------------------16-x9----------------------|
---------------------------14-------------------------|
------------------------------------------------------|
------------------------------------------------------|

Chorus x3
-----9---9---9--9----12--12--7-7-7--9-----------------|
-----10--10--10-10---14--14--9-9-9--10----------------|
-11--11--11--11-11---14--14--9-9-9--11----------------|
-11--11--11--11-11---14--14--9-9-9--11----------------|
-9---9---9---9--9----12--12--7-7-7--9-----------------|
------------------------------------------------------|

-9---9---9---9---9------------------------------------|
-10--10--10--10--10----17-----------------------------|
-11--11--11--11--11----16-x9--------------------------|
-11--11--11--11--11----14-----------------------------|
-9---9---9---9---9------------------------------------|
------------------------------------------------------|

Verse x3
-2--2~~---5---7~~~----------------------------|
-2--2~~---5---7~~~----------------------------|
----------------------------------------------|
----------------------------------------------|
----------------------------------------------|
----------------------------------------------|

-2---2~~--------------------------------------|
-2---2~~--------------------------------------|
----------4b-4-2------------------------------|
----------4b-----4-2-4------------------------|
----------------------------------------------|
----------------------------------------------|

Chorus x2
-----9---9---9---9----12-12---7-7-7--9--------|
-----10--10--10--10---14-14---9-9-9--10-------|
-11--11--11--11--11---14-14---9-9-9--11-------|
-11--11--11--11--11---14-14---9-9-9--11-------|
-9---9---9---9---9----12-12---7-7-7--9--------|
----------------------------------------------|

Post-Chorus
----------------------------------------------|
----------------------------------------------|
-77777777-99999999----------------------------|
-77777777-99999999----------------------------|
-55555555-77777777----------------------------|
----------------------------------------------|

2nd Chorus x4
-2--2~~---5----7~~----------------------------|
-2--2~~---5----7~~----------------------------|
----------------------------------------------|
----------------------------------------------|
----------------------------------------------|
----------------------------------------------|

Verse
-2d-------2d----------------------------------|
-2d-------2d----------------------------------|
--------------------4b-4b--4-2----------------|
--------------------4b-4b------4-2-4----------|
----------------------------------------------|
----------------------------------------------|

Chorus x2
-----9---9---9---9----12-12---7-7-7--9--------|
-----10--10--10--10---14-14---9-9-9--10-------|
-11--11--11--11--11---14-14---9-9-9--11-------|
-11--11--11--11--11---14-14---9-9-9--11-------|
-9---9---9---9---9----12-12---7-7-7--9--------|
----------------------------------------------|

----------------------------------------------|
----------------------------------------------|
-77777777-99999999-7777777-1414141414141414---|
-77777777-99999999-7777777-1414141414141414---|
-55555555-77777777-5555555-1212121212121212---|
----------------------------------------------|

Solo
-15b17~12-14----------------------------------|
-------------12~-12-14-10-12------------------|
----------------------------11~-9-11-12b14----|
----------------------------------------------|
----------------------------------------------|
----------------------------------------------|

---------------------------------------15b----14~-|
------------------------------12bbbbbb-----12-----|
-14b16---9-11-------------------------------------|
--------------9~~~--9-11--------------------------|
-------------------------9~~~~--------------------|
--------------------------------------------------|

Chorus x8
-----9---9---9---9----12-12---7-7-7--9--------|
-----10--10--10--10---14-14---9-9-9--10-------|
-11--11--11--11--11---14-14---9-9-9--11-------|
-11--11--11--11--11---14-14---9-9-9--11-------|
-9---9---9---9---9----12-12---7-7-7--9--------|
----------------------------------------------|
Tap to rate this tab
# A B C D E F G H I J K L M N O P Q R S T U V W X Y Z