Song name
# A B C D E F G H I J K L M N O P Q R S T U V W X Y Z

Jet - Start The Show tab

Start The Show 
Jet
Shaka Rock

A homage to Aussie rock n roll!!!


Intro 

Guitar 1 
e------------------------------------------------|
B------------------------------------------------|
G------------------------------------------------|
D-7-9--12~--12---12-9-7~--7---7------------------|
A-5-7--10~--10---10-7-5~--5---5-5-7--7--7---5--2-|
E-------------------------------3-5--5--5b--3--0-|

Guitar 2 fills
e----------------|-------------------|----------------|
B----------------|-------------------|----------------|
G-14b16-12-------|-14b16-12----12h14-|-14b16-12-------|
D----------14-14-|----------14-------|----------14-14-|
A----------------|-------------------|----------------|
E----------------|-------------------|----------------|



Verse   


Bass / Guitar 1

(the E notes are played on bass)
e---------------------------------------|
B---------------------------------------|
G---------------------------------------|
D---------------------------------------|
A----------5-5h7----------5-5h7---------|
E-00000000-------00000000------00000000-|

-guitar2
(whah style effect)
e--12----10-10-10--10-10-10-|
B--12----12-12-12--10-10-10-|
G---------------------------|
D---------------------------|
A---------------------------|
E---------------------------|


On 2nd Time before pre chorus
e--12-x-x-x-x----10-10-10--10-10-10-|
B--12-x-x-x-x----12-12-12--10-10-10-|
G-----------------------------------|
D-----------------------------------|
A-----------------------------------|
E-----------------------------------|


Pre Chorus 


Guitar 1&2 
e------0--0--0-------0--0--0-|
B------8--8--8-------8--8--8-|
G-7-9--9--9--9--7-9--9--9--9-|
D-7-9--9--9--9--7-9--9--9--9-|
A-5-7--7--7--7--5-7--7--7--7-|
E----------------------------|

E------0--0--0-------0--0--0------|
B------8--8--8-------8--8--8------|
G-7-9--9--9--9--7-9--9--9--9---9\-|
D-7-9--9--9--9--7-9--9--9--9---9\-|
A-5-7--7--7--7--5-7--7--7--7---7\-|
E---------------------------------|


Break


Guitar 2
e-0--0~----0--0~----0--0~----0--0~-|
B-8--8~----8--8~----8--8~----8--8~-|
G-9--9~----9--7~----7--6~----6--9~-|
D----------------------------------|
A----------------------------------|
E----------------------------------|


Chorus


Guitar 1 
e------------------------------------------------------|
B------------------------------------------------------|
G------------------------------------------------------|
D->>>>>-7-9--12~--12---12-9-7~--7---7------------------|
A->>>>>-5-7--10~--10---10-7-5~--5---5-5-7--7--7---5--2-|
E-------------------------------------3-5--5--5b--3--0-|


Guitar 2
e-0--0~----0--0~----0--0~----0--0~-|
B-8--8~----8--8~----8--8~----8--8~-|
G-9--9~----9--7~----7--6~----6--9~-|
D----------------------------------|
A----------------------------------|
E----------------------------------|



Verse
Pre Chorus
Break
Chorus


Bridge


Guitar 2                                   FeedBack!!!!
e---0---0------0---0---|                  -0-0-0-0-0-0-0-0-0-0-0-0-|
B-3--------0-3-------0-|                  -5b5b5b5b5b5b5b5b5b5b5b5-|
G-~---4----------4-----| x Alot ... then  -------------------------|
D----------------------|                  -------------------------|
A----------------------|                  -------------------------|
E----------------------|                  -------------------------|



Solo


Guitar 1 
e--------------------------------------------------------|
B--------------------------------------------------------|
G--------------------------------------------------------|
D->>>>>-7-9--12~--12---12-9-7~--7----7-------------------|
A->>>>>-5-7--10~--10---10-7-5~--5----5-5-7--7---7---5--2-|
E--------------------------------------3-5--5---5b--3--0-|


Guitar 2
e-7-------7-------7-------7-------7-------------------------------------|
B-10b12---10b12---10b12---10b12---10b12---10b12-8---8h10---10b12-8------|
G-------------------------------------------------9----------------9-9v-|
D-----------------------------------------------------------------------|
A-----------------------------------------------------------------------|
E-----------------------------------------------------------------------|


e------12----12-----12---------------------------------------------------|
B----12----12-----12----12~----------------------------------------------|
G-14b---14b----14b------14b14b14b14--14b16-12----12h14v---14b16-12-------|
D--------------------------------------------14------------------14v-14v-|
A------------------------------------------------------------------------|
E------------------------------------------------------------------------|



Last Chorus 


Guitar 2
e-------------------------------------------------------------------|
B-------12---------------------------------12---------12------------|
G-------12--12-12---------12-----------12--14b16--12--14b16-12------|
D-12-14-----------14-12---12-12-12/14-------------------------14-14-|
A-------------------------------------------------------------------|
E-------------------------------------------------------------------|


Guitar 2
e----------------------------------------7--------------------|
B-------12---------------------------------8------------------|
G-------12--12-12---------12-----------------9~---------------|
D-12-14-----------14-12---12-12---------------------7---5--2~-|
A-------------------------------10/12---------------7---5--2~-|
E---------------------------------------------------5b--3--0~-|


feel free to leave any corrections
and dont forget to RATE!!!
Tap to rate this tab
 
# A B C D E F G H I J K L M N O P Q R S T U V W X Y Z