Song name
# A B C D E F G H I J K L M N O P Q R S T U V W X Y Z

Jet - Shes A Genius tab

She's A Genius
Jet
Shaka Rock (2009)

She's A Genius:  written by Nic Cester, Chris Cester, and Cameron Muncey

NOTE: The solo is close, but incorrect, as is the final portion of the chorus.

GTR I - Standard Tuning 'Rhythm Guitar' (e,B,G,D,A,E)
GTR II - Standard Tuning 'Lead Guitar' (e,B,G,D,A,E)

Intro

  GTR I
e|-------------------------------------------------|
B|-------------------------------------------------|
G|-------------------------------------------------|
D|-------------------------------------------------|
A|-------------------------------------------------|
E|-------------------------------------------------|
 |
 |GTR II
e|-------------------------------------------------|
B|-------------------------------------------------|
G|-------------------------------------------------|
D|-------------------------------------------------|
A|--7--7--------------7--5--7-----7----------------|
E|--------0-----0--------------------0--3--0--5----|

  GTR I
e|-------------------------------------------------|
B|-------------------------------------------------|
G|-------------------------------------------------|
D|-------------------------------------------------|
A|-------------------------------------------------|
E|-------------------------------------------------|
 |
 |GTR II
e|-------------------------------------------------|
B|-------------------------------------------------|
G|-------------------------------------------------|
D|-------------------------------------------------|
A|--7--7--------------7--5--7-----7----------------|
E|--------0-----0--------------------0--3--0--5----|

Main Riff

  GTR I
e|-------------------------------------------------|
B|-------------------------------------------------|
G|-------------------------------------------------|
D|-------------------------------------------------|
A|--7--7--------------7--5--7-----7----------------|
E|--------0-----0--------------------0--3--0--5----|
 |
 |GTR II
e|-------------------------------------------------|
B|-------------------------------------------------|
G|-------------------------------------------------|
D|-------------------------------------------------|
A|--7--7--------------7--5--7-----7----------------|
E|--------0-----0--------------------0--3--0--5----|

  GTR I
e|-------------------------------------------------|
B|-------------------------------------------------|
G|-------------------------------------------------|
D|-------------------------------------------------|
A|--7--7--------------7--5--7-----7----------------|
E|--------0-----0--------------------0--3--0--5----|
 |
 |GTR II
e|-------------------------------------------------|
B|-------------------------------------------------|
G|-------------------------------------------------|
D|-------------------------------------------------|
A|--7--7--------------7--5--7-----7----------------|
E|--------0-----0--------------------0--3--0--5----|

Verse

  GTR I
e|-------------------------------------------------|
B|-------------------------------------------------|
G|-------------------------------------------------|
D|-------------------------------------------------|
A|-------------------------------------------------|
E|-------------------------------------------------|
 |
 |GTR II
e|-------------------------------------------------|
B|-------------------------------------------------|
G|--9--9--9--9--9----------------------------------|
D|--9--9--9--9--9-----5-----7--7--7--7--7-----5----|
A|--7--7--7--7--7-----5-----7--7--7--7--7-----5----|
E|--------------------3-----5--5--5--5--5-----3----|

  GTR I
e|-------------------------------------------------|
B|-------------------------------------------------|
G|-------------------------------------------------|
D|-------------------------------------------------|
A|-------------------------------------------------|
E|-------------------------------------------------|
 |
 |GTR II
e|-------------------------------------------------|
B|-------------------------------------------------|
G|--------------------------9--9--9--9--9----------|
D|--7--7--7--7--7-----5-----9--9--9--9--9-----7----|
A|--7--7--7--7--7-----5-----7--7--7--7--7-----7----|
E|--5--5--5--5--5-----3-----------------------5----|

  GTR I
e|-------------------------------------------------|
B|-------------------------------------------------|
G|-------------------------------------------------|
D|-------------------------------------------------|
A|-------------------------------------------------|
E|-------------------------------------------------|
 |
 |GTR II
e|-------------------------------------------------|
B|-------------------------------------------------|
G|--9--9--9--9--9----------------------------------|
D|--9--9--9--9--9-----5-----7--7--7--7--7-----5----|
A|--7--7--7--7--7-----5-----7--7--7--7--7-----5----|
E|--------------------3-----5--5--5--5--5-----3----|

  GTR I
e|-------------------------------------------------|
B|-------------------------------------------------|
G|-------------------------------------------------|
D|-------------------------------------------------|
A|-------------------------------------------------|
E|-------------------------------------------------|
 |
 |GTR II
e|-------------------------------------------------|
B|-------------------------------------------------|
G|--------------------------9--9--9--9--9----------|
D|--7--7--7--7--7-----5-----9--9--9--9--9-----7----|
A|--7--7--7--7--7-----5-----7--7--7--7--7-----7----|
E|--5--5--5--5--5-----3-----------------------5----|

Fill

  GTR I
e|-------------------------------------------------|
B|-------------------------------------------------|
G|--------------------------------------------7----|
D|--------------------------------------5-----7----|
A|--------------------------------------5-----5----|
E|--------------------------------------3----------|
 |
 |GTR II
e|-------------------------------------------------|
B|-------------------------------------------------|
G|--------------------------------------------7----|
D|--------------------------------------5-----7----|
A|--7--7--------------7--5--7-----7-----5-----5----|
E|--------0-----0--------------------0--3----------|

Verse

  GTR I
e|-------------------------------------------------|
B|-------------------------------------------------|
G|-------------------------------------------------|
D|-------------------------------------------------|
A|-------------------------------------------------|
E|-------------------------------------------------|
 |
 |GTR II
e|-------------------------------------------------|
B|-------------------------------------------------|
G|--9--9--9--9--9----------------------------------|
D|--9--9--9--9--9-----5-----7--7--7--7--7-----5----|
A|--7--7--7--7--7-----5-----7--7--7--7--7-----5----|
E|--------------------3-----5--5--5--5--5-----3----|

  GTR I
e|-------------------------------------------------|
B|-------------------------------------------------|
G|-------------------------------------------------|
D|-------------------------------------------------|
A|-------------------------------------------------|
E|-------------------------------------------------|
 |
 |GTR II
e|-------------------------------------------------|
B|-------------------------------------------------|
G|--------------------------9--9--9--9--9----------|
D|--7--7--7--7--7-----5-----9--9--9--9--9-----7----|
A|--7--7--7--7--7-----5-----7--7--7--7--7-----7----|
E|--5--5--5--5--5-----3-----------------------5----|

  GTR I
e|-------------------------------------------------|
B|-------------------------------------------------|
G|-------------------------------------------------|
D|-------------------------------------------------|
A|-------------------------------------------------|
E|-------------------------------------------------|
 |
 |GTR II
e|-------------------------------------------------|
B|-------------------------------------------------|
G|--9--9--9--9--9----------------------------------|
D|--9--9--9--9--9-----5-----7--7--7--7--7-----5----|
A|--7--7--7--7--7-----5-----7--7--7--7--7-----5----|
E|--------------------3-----5--5--5--5--5-----3----|

  GTR I
e|-------------------------------------------------|
B|-------------------------------------------------|
G|-------------------------------------------------|
D|-------------------------------------------------|
A|-------------------------------------------------|
E|-------------------------------------------------|
 |
 |GTR II
e|-------------------------------------------------|
B|-------------------------------------------------|
G|--------------------------9--9--9--9--9----------|
D|--7--7--7--7--7-----5-----9--9--9--9--9-----7----|
A|--7--7--7--7--7-----5-----7--7--7--7--7-----7----|
E|--5--5--5--5--5-----3-----------------------5----|

Pre Chorus

  GTR I
e|-------------------------------------------------|
B|-------------------------------------------------|
G|-------------------------------------------------|
D|-------------------------------------------------|
A|-------------------------------------------------|
E|-------------------------------------------------|
 |
 |GTR II
e|-------------------------------------------------|
B|-------------------------------------------------|
G|-----------------------------------------7--7----|
D|--9--------------------------------------7--7----|
A|--9--------------------------------------5--5----|
E|--7----------------------------------------------|

  GTR I
e|-------------------------------------------------|
B|-------------------------------------------------|
G|-------------------------------------------------|
D|-------------------------------------------------|
A|-------------------------------------------------|
E|-------------------------------------------------|
 |
 |GTR II
e|-------------------------------------------------|
B|-------------------------------------------------|
G|-------------------------------------------------|
D|--7----------------------------------------------|
A|--7----------------------------------------------|
E|--5----------------------------------------------|

Chorus

  GTR I
e|-------------------------------------------------|
B|-------------------------------------------------|
G|--5--5-----5--5-----5-----7--7-----4--4-----7----|
D|--5--5-----5--5-----5-----7--7-----4--4-----7----|
A|--3--3-----3--3-----3-----5--5-----2--2-----5----|
E|-------------------------------------------------|
 |
 |GTR II
e|-------------------------------------------------|
B|-12-12-12-12-12-12-12-12-12-12-12-12-12-12-12-12-|
G|-12-12-12-12-12-12-12-12-12-12-12-12-12-12-12-12-|
D|-------------------------------------------------|
A|-------------------------------------------------|
E|-------------------------------------------------|

  GTR I
e|-------------------------------------------------|
B|-------------------------------------------------|
G|--9--9-----9--9-----9-----9--9-----9--9-----9----|
D|--9--9-----9--9-----9-----9--9-----9--9-----9----|
A|--7--7-----7--7-----7-----7--7-----7--7-----7----|
E|-------------------------------------------------|
 |
 |GTR II
e|-------------------------------------------------|
B|-12-12-12-12-12-12-12-12-12-12----12-12-12-12-12-|
G|-12-12-12-12-12-12-12-12-12-14----14-14-12-12-12-|
D|-14-14-14-14-14-14-14-14-14-14----14-14-14-14-14-|
A|-------------------------------------------------|
E|-------------------------------------------------|

  GTR I
e|-------------------------------------------------|
B|-------------------------------------------------|
G|--5--5-----5--5-----5-----7--7-----4--4-----7----|
D|--5--5-----5--5-----5-----7--7-----4--4-----7----|
A|--3--3-----3--3-----3-----5--5-----2--2-----5----|
E|-------------------------------------------------|
 |
 |GTR II
e|-------------------------------------------------|
B|-12-12-12-12-12-12-12-12-12-12-12-12-12-12-12-12-|
G|-12-12-12-12-12-12-12-12-12-12-12-12-12-12-12-12-|
D|-------------------------------------------------|
A|-------------------------------------------------|
E|-------------------------------------------------|

  GTR I
e|-------------------------------------------------|
B|-------------------------------------------------|
G|-----------4-----------4-----------4-------------|
D|-----------4-----------4-----------4-------------|
A|--2--0--2-----2--0--2-----2--0--2-----2--0--2----|
E|-------------------------------------------------|
 |
 |GTR II
e|-------------------------------------------------|
B|-------------------------------------------------|
G|-----------4-----------4-----------4-------------|
D|-----------4-----------4-----------4-------------|
A|--2--0--2-----2--0--2-----2--0--2-----2--0--2----|
E|-------------------------------------------------|

Main Riff

  GTR I
e|-------------------------------------------------|
B|-------------------------------------------------|
G|-------------------------------------------------|
D|-------------------------------------------------|
A|--7--7--------------7--5--7-----7----------------|
E|--------0-----0--------------------0--3--0--5----|
 |
 |GTR II
e|-------------------------------------------------|
B|-------------------------------------------------|
G|-------------------------------------------------|
D|-------------------------------------------------|
A|--7--7--------------7--5--7-----7----------------|
E|--------0-----0--------------------0--3--0--5----|

  GTR I
e|-------------------------------------------------|
B|-------------------------------------------------|
G|-------------------------------------------------|
D|-------------------------------------------------|
A|--7--7--------------7--5--7-----7----------------|
E|--------0-----0--------------------0--3--0--5----|
 |
 |GTR II
e|-------------------------------------------------|
B|-------------------------------------------------|
G|-------------------------------------------------|
D|-------------------------------------------------|
A|--7--7--------------7--5--7-----7----------------|
E|--------0-----0--------------------0--3--0--5----|

Verse

  GTR I
e|-------------------------------------------------|
B|--9--9--9--9--9----------10-10-10-10-10----------|
G|--9--9--9--9--9-----------9--9--9--9--9----------|
D|-------------------------------------------------|
A|-------------------------------------------------|
E|-------------------------------------------------|
 |
 |GTR II
e|-------------------------------------------------|
B|-------------------------------------------------|
G|--9--9--9--9--9----------------------------------|
D|--9--9--9--9--9-----5-----7--7--7--7--7-----5----|
A|--7--7--7--7--7-----5-----7--7--7--7--7-----5----|
E|--------------------3-----5--5--5--5--5-----3----|

  GTR I
e|-------------------------------------------------|
B|-10-10-10-10-10-----------9--9--9--9--9----------|
G|--9--9--9--9--9-----------9--9--9--9--9----------|
D|-------------------------------------------------|
A|-------------------------------------------------|
E|-------------------------------------------------|
 |
 |GTR II
e|-------------------------------------------------|
B|-------------------------------------------------|
G|--------------------------9--9--9--9--9----------|
D|--7--7--7--7--7-----5-----9--9--9--9--9-----7----|
A|--7--7--7--7--7-----5-----7--7--7--7--7-----7----|
E|--5--5--5--5--5-----3-----------------------5----|

  GTR I
e|-------------------------------------------------|
B|--9--9--9--9--9----------10-10-10-10-10----------|
G|--9--9--9--9--9-----------9--9--9--9--9----------|
D|-------------------------------------------------|
A|-------------------------------------------------|
E|-------------------------------------------------|
 |
 |GTR II
e|-------------------------------------------------|
B|-------------------------------------------------|
G|--9--9--9--9--9----------------------------------|
D|--9--9--9--9--9-----5-----7--7--7--7--7-----5----|
A|--7--7--7--7--7-----5-----7--7--7--7--7-----5----|
E|--------------------3-----5--5--5--5--5-----3----|

  GTR I
e|-------------------------------------------------|
B|-10-10-10-10-10-----------9--9--9--9--9----------|
G|--9--9--9--9--9-----------9--9--9--9--9----------|
D|-------------------------------------------------|
A|-------------------------------------------------|
E|-------------------------------------------------|
 |
 |GTR II
e|-------------------------------------------------|
B|-------------------------------------------------|
G|--------------------------9--9--9--9--9----------|
D|--7--7--7--7--7-----5-----9--9--9--9--9-----7----|
A|--7--7--7--7--7-----5-----7--7--7--7--7-----7----|
E|--5--5--5--5--5-----3-----------------------5----|

Pre Chorus

  GTR I
e|-------------------------------------------------|
B|-------------------------------------------------|
G|-------------------------------------------------|
D|-------------------------------------------------|
A|-------------------------------------------------|
E|-------------------------------------------------|
 |
 |GTR II
e|-------------------------------------------------|
B|-------------------------------------------------|
G|-------------------------------------------------|
D|--9--------------------------------------5--5----|
A|--9--------------------------------------5--5----|
E|--7--------------------------------------3--3----|

  GTR I
e|-------------------------------------------------|
B|-------------------------------------------------|
G|-------------------------------------------------|
D|-------------------------------------------------|
A|-------------------------------------------------|
E|-------------------------------------------------|
 |
 |GTR II
e|-------------------------------------------------|
B|-------------------------------------------------|
G|-------------------------------------------------|
D|--7----------------------------------------------|
A|--7----------------------------------------------|
E|--5----------------------------------------------|

Chorus 2

  GTR I
e|-------------------------------------------------|
B|-------------------------------------------------|
G|--5--5-----5--5-----5-----7--7-----4--4-----7----|
D|--5--5-----5--5-----5-----7--7-----4--4-----7----|
A|--3--3-----3--3-----3-----5--5-----2--2-----5----|
E|-------------------------------------------------|
 |
 |GTR II
e|-------------------------------------------------|
B|-12-12-12-12-12-12-12-12-12-12-12-12-12-12-12-12-|
G|-12-12-12-12-12-12-12-12-12-12-12-12-12-12-12-12-|
D|-------------------------------------------------|
A|-------------------------------------------------|
E|-------------------------------------------------|

  GTR I
e|-------------------------------------------------|
B|-------------------------------------------------|
G|--9--9-----9--9-----9-----9--9-----9--9-----9----|
D|--9--9-----9--9-----9-----9--9-----9--9-----9----|
A|--7--7-----7--7-----7-----7--7-----7--7-----7----|
E|-------------------------------------------------|
 |
 |GTR II
e|-------------------------------------------------|
B|-12-12-12-12-12-12-12-12-12-12----12-12-12-12-12-|
G|-12-12-12-12-12-12-12-12-12-14----14-14-12-12-12-|
D|-14-14-14-14-14-14-14-14-14-14----14-14-14-14-14-|
A|-------------------------------------------------|
E|-------------------------------------------------|

  GTR I
e|-------------------------------------------------|
B|-------------------------------------------------|
G|--5--5-----5--5-----5-----7--7-----4--4-----7----|
D|--5--5-----5--5-----5-----7--7-----4--4-----7----|
A|--3--3-----3--3-----3-----5--5-----2--2-----5----|
E|-------------------------------------------------|
 |
 |GTR II
e|-------------------------------------------------|
B|-12-12-12-12-12-12-12-12-12-12-12-12-12-12-12-12-|
G|-12-12-12-12-12-12-12-12-12-12-12-12-12-12-12-12-|
D|-------------------------------------------------|
A|-------------------------------------------------|
E|-------------------------------------------------|

  GTR I
e|-------------------------------------------------|
B|-------------------------------------------------|
G|--9--9-----9--9-----9-----9--9-----9--9-----9----|
D|--9--9-----9--9-----9-----9--9-----9--9-----9----|
A|--7--7-----7--7-----7-----7--7-----7--7-----7----|
E|-------------------------------------------------|
 |
 |GTR II
e|-12-12-12-12-12----12-12----12-12----12-12----12-|
B|-12-12-12-12-12-15b------15b------15b------15b---|
G|-------------------------------------------------|
D|-------------------------------------------------|
A|-------------------------------------------------|
E|-------------------------------------------------|

  GTR I
e|-------------------------------------------------|
B|-------------------------------------------------|
G|--5--5-----5--5-----5-----7--7-----4--4-----7----|
D|--5--5-----5--5-----5-----7--7-----4--4-----7----|
A|--3--3-----3--3-----3-----5--5-----2--2-----5----|
E|-------------------------------------------------|
 |
 |GTR II
e|-------------------------------------------------|
B|-12-12-12-12-12-12-12-12-12-12-12-12-12-12-12-12-|
G|-12-12-12-12-12-12-12-12-12-12-12-12-12-12-12-12-|
D|-------------------------------------------------|
A|-------------------------------------------------|
E|-------------------------------------------------|

  GTR I
e|-------------------------------------------------|
B|-------------------------------------------------|
G|--9--9-----9--9-----9-----9--9-----9--9-----9----|
D|--9--9-----9--9-----9-----9--9-----9--9-----9----|
A|--7--7-----7--7-----7-----7--7-----7--7-----7----|
E|-------------------------------------------------|
 |
 |GTR II
e|-------------------------------------------------|
B|-12-12-12-12-12-12-12-12-12-12----12-12-12-12-12-|
G|-12-12-12-12-12-12-12-12-12-14----14-14-12-12-12-|
D|-14-14-14-14-14-14-14-14-14-14----14-14-14-14-14-|
A|-------------------------------------------------|
E|-------------------------------------------------|

  GTR I
e|-------------------------------------------------|
B|-------------------------------------------------|
G|--5--5-----5--5-----5-----7--7-----4--4-----7----|
D|--5--5-----5--5-----5-----7--7-----4--4-----7----|
A|--3--3-----3--3-----3-----5--5-----2--2-----5----|
E|-------------------------------------------------|
 |
 |GTR II
e|-------------------------------------------------|
B|-12-12-12-12-12-12-12-12-12-12-12-12-12-12-12-12-|
G|-12-12-12-12-12-12-12-12-12-12-12-12-12-12-12-12-|
D|-------------------------------------------------|
A|-------------------------------------------------|
E|-------------------------------------------------|

  GTR I
e|-------------------------------------------------|
B|-------------------------------------------------|
G|-----------4-----------4-----------4-------------|
D|-----------4-----------4-----------4-------------|
A|--2--0--2-----2--0--2-----2--0--2-----2--0--2----|
E|-------------------------------------------------|
 |
 |GTR II
e|-------------------------------------------------|
B|-------------------------------------------------|
G|-----------4-----------4-----------4-------------|
D|-----------4-----------4-----------4-------------|
A|--2--0--2-----2--0--2-----2--0--2-----2--0--2----|
E|-------------------------------------------------|

Solo

  GTR I
e|-------------------------------------------------|
B|-------------------------------------------------|
G|--9--9--9--9--9----------------------------------|
D|--9--9--9--9--9-----5-----7--7--7--7--7-----5----|
A|--7--7--7--7--7-----5-----7--7--7--7--7-----5----|
E|--------------------3-----5--5--5--5--5-----3----|
 |
 |GTR II
e|-------------------------------------------------|
B|-------------------------------------------------|
G|-------------------------------------------------|
D|--9--9--9-----9-----9--9-----9--9--9\-7p-5--7----|
A|-------------------------------------------------|
E|-------------------------------------------------|

  GTR I
e|-------------------------------------------------|
B|-------------------------------------------------|
G|--------------------------9--9--9--9--9----------|
D|--7--7--7--7--7-----5-----9--9--9--9--9-----7----|
A|--7--7--7--7--7-----5-----7--7--7--7--7-----7----|
E|--5--5--5--5--5-----3-----------------------5----|
 |
 |GTR II
e|-------------------------------------------------|
B|----------------------------10-------------------|
G|-----------------8b----------8b----7-----7-------|
D|--9\-7p-5--------------9-------------10--7-------|
A|-----------7p-5----------------------------------|
E|-------------------------------------------------|

  GTR I
e|-------------------------------------------------|
B|-------------------------------------------------|
G|--9--9--9--9--9----------------------------------|
D|--9--9--9--9--9-----5-----7--7--7--7--7-----5----|
A|--7--7--7--7--7-----5-----7--7--7--7--7-----5----|
E|--------------------3-----5--5--5--5--5-----3----|
 |
 |GTR II
e|-15b---------15~---------15b---15-15b---15~------|
B|----------------------------------------------15-|
G|-------------------------------------------------|
D|-------------------------------------------------|
A|-------------------------------------------------|
E|-------------------------------------------------|

  GTR I
e|-------------------------------------------------|
B|-------------------------------------------------|
G|--------------------------9--9--9--9--9----------|
D|--7--7--7--7--7-----5-----9--9--9--9--9-----7----|
A|--7--7--7--7--7-----5-----7--7--7--7--7-----7----|
E|--5--5--5--5--5-----3-----------------------5----|
 |
 |GTR II
e|-------------------------------------------------|
B|-12----------------------------------------------|
G|----14b---14-12----------12ph--------------------|
D|----------------14-12-14----------14~------12~---|
A|-------------------------------------------------|
E|-------------------------------------------------|

Pre Chorus

  GTR I
e|-------------------------------------------------|
B|-------------------------------------------------|
G|-------------------------------------------------|
D|--9--------------------------------------5--5----|
A|--9--------------------------------------5--5----|
E|--7--------------------------------------3--3----|
 |
 |GTR II
e|-------------------------------------------------|
B|-------------------------------------------------|
G|-------------------------------------------------|
D|--9~---------------------------------------------|
A|-------------------------------------------------|
E|-------------------------------------------------|

  GTR I
e|-------------------------------------------------|
B|-------------------------------------------------|
G|-------------------------------------------------|
D|--7----------------------------------------------|
A|--7----------------------------------------------|
E|--5----------------------------------------------|
 |
 |GTR II
e|-------------------------------------------------|
B|-------------------------------------------------|
G|-------------------------------------------------|
D|-------------------------------------------------|
A|-------------------------------------------------|
E|-------------------------------------------------|

Chorus 3

  GTR I
e|-------------------------------------------------|
B|-------------------------------------------------|
G|-------------------------------------------------|
D|-------------------------------------------------|
A|-------------------------------------------------|
E|-------------------------------------------------|
 |
 |GTR II
e|-------------------------------------------------|
B|-------------------------------------------------|
G|-------------------------------------------------|
D|-------------------------------------------------|
A|-------------------------------------------------|
E|-------------------------------------------------|

  GTR I
e|-------------------------------------------------|
B|-------------------------------------------------|
G|--9--9-----9--9-----9-----9--9-----9--9-----9----|
D|--9--9-----9--9-----9-----9--9-----9--9-----9----|
A|--7--7-----7--7-----7-----7--7-----7--7-----7----|
E|-------------------------------------------------|
 |
 |GTR II
e|-------------------------------------------------|
B|-12-12-12-12-12-12-12-12-12-12----12-12-12-12-12-|
G|-12-12-12-12-12-12-12-12-12-14----14-14-12-12-12-|
D|-14-14-14-14-14-14-14-14-14-14----14-14-14-14-14-|
A|-------------------------------------------------|
E|-------------------------------------------------|

  GTR I
e|-------------------------------------------------|
B|-------------------------------------------------|
G|--5--5-----5--5-----5-----7--7-----4--4-----7----|
D|--5--5-----5--5-----5-----7--7-----4--4-----7----|
A|--3--3-----3--3-----3-----5--5-----2--2-----5----|
E|-------------------------------------------------|
 |
 |GTR II
e|-------------------------------------------------|
B|-12-12-12-12-12-12-12-12-12-12-12-12-12-12-12-12-|
G|-12-12-12-12-12-12-12-12-12-12-12-12-12-12-12-12-|
D|-------------------------------------------------|
A|-------------------------------------------------|
E|-------------------------------------------------|

  GTR I
e|-------------------------------------------------|
B|-------------------------------------------------|
G|--9--9-----9--9-----9-----9--9-----9--9-----9----|
D|--9--9-----9--9-----9-----9--9-----9--9-----9----|
A|--7--7-----7--7-----7-----7--7-----7--7-----7----|
E|-------------------------------------------------|
 |
 |GTR II
e|-12-12-12-12-12----12-12----12-12----12-12----12-|
B|-12-12-12-12-12-15b------15b------15b------15b---|
G|-------------------------------------------------|
D|-------------------------------------------------|
A|-------------------------------------------------|
E|-------------------------------------------------|

  GTR I
e|-------------------------------------------------|
B|-------------------------------------------------|
G|--5--5-----5--5-----5-----7--7-----4--4-----7----|
D|--5--5-----5--5-----5-----7--7-----4--4-----7----|
A|--3--3-----3--3-----3-----5--5-----2--2-----5----|
E|-------------------------------------------------|
 |
 |GTR II
e|-------------------------------------------------|
B|-12-12-12-12-12-12-12-12-12-12-12-12-12-12-12-12-|
G|-12-12-12-12-12-12-12-12-12-12-12-12-12-12-12-12-|
D|-------------------------------------------------|
A|-------------------------------------------------|
E|-------------------------------------------------|

  GTR I
e|-------------------------------------------------|
B|-------------------------------------------------|
G|--9--9-----9--9-----9-----9--9-----9--9-----9----|
D|--9--9-----9--9-----9-----9--9-----9--9-----9----|
A|--7--7-----7--7-----7-----7--7-----7--7-----7----|
E|-------------------------------------------------|
 |
 |GTR II
e|-------------------------------------------------|
B|-12-12-12-12-12-12-12-12-12-12----12-12-12-12-12-|
G|-12-12-12-12-12-12-12-12-12-14----14-14-12-12-12-|
D|-14-14-14-14-14-14-14-14-14-14----14-14-14-14-14-|
A|-------------------------------------------------|
E|-------------------------------------------------|

  GTR I
e|-------------------------------------------------|
B|-------------------------------------------------|
G|--5--5-----5--5-----5-----7--7-----4--4-----7----|
D|--5--5-----5--5-----5-----7--7-----4--4-----7----|
A|--3--3-----3--3-----3-----5--5-----2--2-----5----|
E|-------------------------------------------------|
 |
 |GTR II
e|-------------------------------------------------|
B|-12-12-12-12-12-12-12-12-12-12-12-12-12-12-12-12-|
G|-12-12-12-12-12-12-12-12-12-12-12-12-12-12-12-12-|
D|-------------------------------------------------|
A|-------------------------------------------------|
E|-------------------------------------------------|

  GTR I
e|-------------------------------------------------|
B|-------------------------------------------------|
G|--9--9-----9--9-----9-----9--9-----9--9-----9----|
D|--9--9-----9--9-----9-----9--9-----9--9-----9----|
A|--7--7-----7--7-----7-----7--7-----7--7-----7----|
E|-------------------------------------------------|
 |
 |GTR II
e|-12-12-12-12-12-12-12-12-12-12-12-12-12-12-12-12-|
B|-12-12-12-12-12-12-12-12-12-12-12-12-15-12-15-12-|
G|-------------------------------------------------|
D|-------------------------------------------------|
A|-------------------------------------------------|
E|-------------------------------------------------|

  GTR I
e|-------------------------------------------------|
B|-------------------------------------------------|
G|--5--5--5--5--5--5--5--5--7--7--7--7--7--7--7--7-|
D|--5--5--5--5--5--5--5--5--7--7--7--7--7--7--7--7-|
A|--3--3--3--3--3--3--3--3--5--5--5--5--5--5--5--5-|
E|-------------------------------------------------|
 |
 |GTR II
e|-------------------------------------------------|
B|--8--8--8--8--8--8--8--8-10-10-10-10-10-10-10-10-|
G|--7--7--7--7--7--7--7--7--9--9--9--9--9--9--9--9-|
D|-------------------------------------------------|
A|-------------------------------------------------|
E|-------------------------------------------------|

  GTR I
e|-------------------------------------------------|
B|-------------------------------------------------|
G|--5--5--5--5--5--5--5--5--7--7--7--7--7--7--7--7-|
D|--5--5--5--5--5--5--5--5--7--7--7--7--7--7--7--7-|
A|--3--3--3--3--3--3--3--3--5--5--5--5--5--5--5--5-|
E|-------------------------------------------------|
 |
 |GTR II
e|-------------------------------------------------|
B|--8--8--8--8--8--8--8--8-10-10-10-10-10-10-10-10-|
G|--7--7--7--7--7--7--7--7--9--9--9--9--9--9--9--9-|
D|-------------------------------------------------|
A|-------------------------------------------------|
E|-------------------------------------------------|

  GTR I
e|-------------------------------------------------|
B|-------------------------------------------------|
G|--5--5--5--5--5--5--5--5--7--7--7--7--7--7--7--7-|
D|--5--5--5--5--5--5--5--5--7--7--7--7--7--7--7--7-|
A|--3--3--3--3--3--3--3--3--5--5--5--5--5--5--5--5-|
E|-------------------------------------------------|
 |
 |GTR II
e|-------------------------------------------------|
B|--8--8--8--8--8--8--8--8-10-10-10-10-10-10-10-10-|
G|--7--7--7--7--7--7--7--7--9--9--9--9--9--9--9--9-|
D|-------------------------------------------------|
A|-------------------------------------------------|
E|-------------------------------------------------|

  GTR I
e|-------------------------------------------------|
B|-------------------------------------------------|
G|-----------4-----------4-----------4-------------|
D|-----------4-----------4-----------4-------------|
A|--2--0--2-----2--0--2-----2--0--2-----2--0--2----|
E|-------------------------------------------------|
 |
 |GTR II
e|-------------------------------------------------|
B|-------------------------------------------------|
G|-----------4-----------4-----------4-------------|
D|-----------4-----------4-----------4-------------|
A|--2--0--2-----2--0--2-----2--0--2-----2--0--2----|
E|-------------------------------------------------|

Main Riff

  GTR I
e|-------------------------------------------------|
B|-------------------------------------------------|
G|-------------------------------------------------|
D|-------------------------------------------------|
A|--7--7--------------7--5--7-----7----------------|
E|--------0-----0--------------------0--3--0--5----|
 |
 |GTR II
e|-------------------------------------------------|
B|-------------------------------------------------|
G|-------------------------------------------------|
D|-------------------------------------------------|
A|--7--7--------------7--5--7-----7----------------|
E|--------0-----0--------------------0--3--0--5----|


| /  slide up
| \  slide down
| h  hammer-on
| p  pull-off
| ~  vibrato
| +  harmonic
| x  Mute note
===============================================================================

Tap to rate this tab
# A B C D E F G H I J K L M N O P Q R S T U V W X Y Z