Song name
# A B C D E F G H I J K L M N O P Q R S T U V W X Y Z

Jet - Beat On Repeat tab

-Intro:
e|-----------------|  |------------------|-----------------|--12--------|
b|-----------------|  |------------------|-----------------|--12--------|
g|-----------------|2x|------------------|-----------------|--13--------|
d|-----------------|  |------------------|-----------------|--14-9xfast-|
a|-----------------|  |----------4-2-----|-----------------|--14--------|
e|---------0-2-5-2-|  |--------------5-2-|---------0-2-5-2-|--12--------|

-verse 1:
e|------9------------|--------------------|  |------9----------|-12--------|
b|------10-----------|-10---12---9-10-9-10|  |------10---------|-12--------|
g|------11---11------|-9----9----9-11-9-11|3x|------11---11----|-13--------|
d|---11------11-11---|-11---11---9-9--9-9-|  |---11------11-11-|-14-9------|xfast
a|-x-9----------9----|--------------------|  |-x-9----------9--|-14--------|
e|-x-----------------|--------------------|  |-x---------------|-12--------|


-verse 2:
e|---------------|---------------|  |---------------|------------------|
b|---------------|---10----12-12-|  |---------------|------------------|
g|---------------|---9-----9--9--|  |---------------|------------------|
d|---11----11-11-|---------------|3x|---11----11-11-|--9b--9b--9-7-----|
a|---9-----9--9--|---------------|  |---9-----9--9--|--------------9-7-|
e|---------------|---------------|  |---------------|------------------|


-Chorus:
e|------9----------|---------------------|  |----------|-----------|
b|------10---------|-10---12---9-10-9-10-|  |----------|-----------|
g|------11---11----|-9----9----9-11-9-11-|  |----------|-----------|
d|---11------11-11-|-11---11---9-9--9-9--|2x|------7-9-|------14~--|
a|-x-9----------9--|---------------------|  |----9-----|-7/12------|
e|-x---------------|---------------------|  |-10-------|-----------|

-verse 2

-interlude is same as intro

-chorus 2
at the end of second chorus:
e|----------------------------------|
b|----------------------------------|
g|---------------7------------------|
d|-----7-9-----9-------7-9-----14~--|
a|---9-----7-11------9-----7/12-----|
e|-10--------------10---------------|

-solo with verse 2 at background
e|-12b----9-12----------9--------------------------12-----------------|
b|------------12~----12---10-12------------9b(1/2)-12-----------------|
g|------------------------------11----9-11---------12---9-11----------|
d|----------------------------------------------------------9--9-11---|
a|------------------------------------------------------------------9-|
e|--------------------------------------------------------------------|

e|-----------------------15---14b-|
b|-12-12b-12b-12b-12b-12----12----|
g|--------------------------------|
d|--------------------------------|
a|--------------------------------|
e|--------------------------------|

-chorus 2x
Tap to rate this tab
 
# A B C D E F G H I J K L M N O P Q R S T U V W X Y Z