Song name
# A B C D E F G H I J K L M N O P Q R S T U V W X Y Z

Jet - Be My Girl tab

Alex Wilson
This is correct mostly its how my band play it but if its wrong make your own tab
standard tuning
bass plays intro

e|----------------------|
B|----------------------|
G|----5--7--7--5--------|
D|-7--5--7--7--5--7--5--|
A|-7--------------7--5--|
E|----------------------|

e|--------------------------------------------------------------|
B|--------------------------------------------------------------|
G|------------------5-------------------------------------------|
D|--7-7-7--7-7-7-7--5-7-7-7--7-7-7-7--5-7-7-7--7-7-7-7----------|
A|--7-7-7--7-7-7-7--3-7-7-7--7-7-7-7--5-7-7-7--7-7-7-7----------|
E|--5-5-5--5-5-5-5----5-5-5--5-5-5-5--3-5-5-5--5-5-5-5----------|

e|-----------------------------------------------------------------------|
B|-----------------------------------------------------------------------|
G|-----5--7--7--5--------------------------------------------------------|
D|--7--5--7--7--5--7--5-----------7-7-7--7-7-7-7-5-----------------------|
A|--7--------------7--5-----------7-7-7--7-7-7-7-5-----------------------|
E|--------------------------------5-5-5--5-5-5-5-3-----------------------|
                        1,2,3....                  said you look so fine..
e|-----------------------------------------------|
B|-----------------------------------------------|
G|-------------------------------------------5---|
D|-7-7-7--7-7-7-7-5-----------7-7-7--7-7-7-7-5---|
A|-7-7-7--7-7-7-7-5-----------7-7-7--7-7-7-7-3---|
E|-5-5-5--5-5-5-5-3-----------5-5-5--5-5-5-5-----|
                    4,5,6....
e|---------------------------------------------------|
B|---------------------------------------------------|
G|-----5--7--7--5--------7-7-7-5---------------------|
D|--7--5--7--7--5-7--5---7-7-7-5-5-x3----------------|
A|--7-------------7--5---5-5-5-3-5-------------------|
E|-------------------------------3-------------------|
                         big black boots
chorus                                       middle 8
e|-----------------------------------------]-------------------------|
B|-----------------------------------------]-------------------------|repet
G|-----------555-55555-777-77777-----------]--9-9-9--12--------------|all
D|-777-77777-555-55555-777-77777-777-77777-]--9-9-9--12--------------|the
A|-777-77777-333-33333-555-55555-777-77777-]--7-7-7--10--------------|song
E|-555-55555---------------------555-55555-]-------------------------|
                                                    Are you guna...
play the chorus under the solo
solo
e|--------10-------------12-----------------------|
B|--12b-10----10--12b-10----10--------------------|play rhis untill the end of the solo
G|------------------------------------------------|then play the chorus through again and end
D|------------------------------|on the middle 8--|
A|------------------------------------------------|
E|------------------------------------------------|

| b   Bend
Tap to rate this tab
 
# A B C D E F G H I J K L M N O P Q R S T U V W X Y Z