Song name
# A B C D E F G H I J K L M N O P Q R S T U V W X Y Z

Jet - Seventeen tab

-------------------------------------------------------------------------------
			     SEVENTEEN - Jet
-------------------------------------------------------------------------------
Tabbed by: Freddy97
Email:dr.fred@rocketmail.com

Tuning: Standard

Ok, this is my first tab so there may be a couple of 
mistakes but feel free to email me or comment and I will 
pretend to read it. Cheers :)

  Piano intro/verse:
e|--------------------------------------------------------------------------|
b|--------------------------------------------------------------------------|
G|------13-13-13-14-14-14-14-14---------------------------------------------|
D|------11-11-11-11-11-11-11-11---------------------------------------------|
A|--------------------------------------------------------------------------|
E|--------------------------------------------------------------------------|

 Riff:
e|---------------------------------------------------------------------------|(Not sure if 
B|--9-9-10-------------------------------------------------------------------| this is right)
G|--9-9-11-------------------------------------------------------------------|
D|---------------------------------------------------------------------------|
A|---------------------------------------------------------------------------|
E|---------------------------------------------------------------------------|
  
 Pre-Chorus:
e|--15-14-12-10-9h10-9-5-----------------------------------------------------|
B|---------------------------------------------------------------------------|
G|---------------------------------------------------------------------------|
D|---------------------------------------------------------------------------|
A|---------------------------------------------------------------------------|
E|---------------------------------------------------------------------------|
 
e|--15-14-12-10-9h10---------------------------------------------------------|
B|-------------------10--10-10b----------------------------------------------|
G|---------------------------------------------------------------------------|
D|---------------------------------------------------------------------------|
A|---------------------------------------------------------------------------|
E|---------------------------------------------------------------------------|
     
Chorus:
      C#    Em   A     A
e|---------------------------------------------------------------------------|
B|---------------------------------------------------------------------------|
G|----6-6--------------------------------------------------------------------|
D|----6-6--2-2--7-7-7-7-7-7-------------------------------------------------|
A|----4-4--2-2--7-7--7-7-7-7-------------------------------------------------|
E|---------0-0--5-5--5-5-5-5-------------------------------------------------|


************************************

| /   slide up
| \   slide down
| h   hammer-on
| p   pull-off
| ~   vibrato
| +   harmonic
| x   Mute note
| b   Bend
| pb  Pre-bend
| br  Bend release
| pbr Pre-bend release
| brb Bend release bend

************************************

Tap to rate this tab
 
# A B C D E F G H I J K L M N O P Q R S T U V W X Y Z