Song name
# A B C D E F G H I J K L M N O P Q R S T U V W X Y Z

Jet - Seventeen tab

Jet - Seventeen, Shaka Rock... The interlude is not 100% accurate, but the rest should be...


Intro:

e]-----------------------------------------------------]
b]-----------------------------------------------------]
g]---13-13-13-14-14-14-14-14-14-14-14-14-14-14-14-14---]  (9 times) 
d]---11-11-11-11-11-11-11-11-11-11-11-11-11-11-11-11---]
a]-----------------------------------------------------]
E]-----------------------------------------------------]


Band joins in after the piano plays the intro riff 6 times...

e]----9-9--9--]
b]----9-10-10-] This is played from the 7th to 9th progression of the intro 
g]----9-9--9--]
d]------------]
a]------------]
E]------------]


This is played after the intro riff plays 9 times...


e]--15-14-12-10-9-10-9------------15-14-12-10-9-10-9-------------------]
b]---------------------10----------------------------10------10-10-10b-]
g]------------------------6-----------------------------6--------------]
d]--------------------------7-----------------------------7------------]
a]---------------------------------------------------------------------]
E]---------------------------------------------------------------------]


chorus...

e]------------------------]
b]------------------------]
g]--6-6-------2-2--2-2-2-2]   (4 times)
d]--6-6--2-2--2-2--2-2-2-2]
a]--4-4--2-2--0-0--0-0-0-0]
E]-------0-0--------------]


intro riff again...

e]-----------------------------------------------------]
b]-----------------------------------------------------]
g]---13-13-13-14-14-14-14-14-14-14-14-14-14-14-14-14---]  (8 times) 
d]---11-11-11-11-11-11-11-11-11-11-11-11-11-11-11-11---]
a]-----------------------------------------------------]
E]-----------------------------------------------------]




e]----9-9--9--9--]
b]----9-10-10-10-] (8 times)
g]----9-9--9--9--]
d]---------------]
a]---------------]
E]---------------]



e]--15-14-12-10-9-10-9------------15-14-12-10-9-10-9-------------------]
b]---------------------10----------------------------10------10-10-10b-]
g]------------------------6-----------------------------6--------------]
d]--------------------------7-----------------------------7------------]
a]---------------------------------------------------------------------]
E]---------------------------------------------------------------------]


chorus riff...

e]------------------------]
b]------------------------]
g]--6-6-------2-2--2-2-2-2]   (8 times)
d]--6-6--2-2--2-2--2-2-2-2]
a]--4-4--2-2--0-0--0-0-0-0]
E]-------0-0--------------]



Interlude...

e]-9----9--]
b]-10---10-]
g]-6----7--]  (4 times)
d]---------]
a]---------]
E]---------]


e]--7-9-10-]
b]---------]
g]---------]  (2 times[first 2 times the chords are played])
d]---------]
a]---------]
E]---------]


e]------9---------9---------9---------9-----]
b]---10---10---10---10---10---10---10---10--]
g]-7---------7---------7---------7----------]
d]------------------------------------------]
a]------------------------------------------]
E]------------------------------------------]

e]------10-9-------10-9------10-9-------10-9-------]
b]---10------10-7-------10-7-------10-7-------10---]
g]-7-----------------------------------------------]   (2 times)
d]-------------------------------------------------]
a]-------------------------------------------------]
E]-------------------------------------------------]


e]-----9-10-9----9-10-9----9-10-9---9----9----8----9----9----9----8br--7-]
b]--10--------10--------10------------10---10---10---10---10---10--------]
g]-----------------------------------------------------------------------]
d]-----------------------------------------------------------------------]
a]-----------------------------------------------------------------------]
E]-----------------------------------------------------------------------]





e]-----------------------------------------------------]
b]-----------------------------------------------------]
g]---13-13-13-14-14-14-14-14-14-14-14-14-14-14-14-14---]  (8 times) 
d]---11-11-11-11-11-11-11-11-11-11-11-11-11-11-11-11---]
a]-----------------------------------------------------]
E]-----------------------------------------------------]


e]----9-9--9--9--]
b]----9-10-10-10-] (8 times)
g]----9-9--9--9--]
d]---------------]
a]---------------]
E]---------------]



chorus...

e]------------------------]
b]------------------------]
g]--6-6-------2-2--2-2-2-2]   (8 times)
d]--6-6--2-2--2-2--2-2-2-2]
a]--4-4--2-2--0-0--0-0-0-0]
E]-------0-0--------------]


Finish...
Tap to rate this tab
 
# A B C D E F G H I J K L M N O P Q R S T U V W X Y Z