Song name
# A B C D E F G H I J K L M N O P Q R S T U V W X Y Z

Jet - Shes A Genius tab

Jet
She's a Genius
Tabbed by Kane.tutor@gmail.com

Good luck!

Intro RIFF (bass has 4 bars before this)

E||--------------------------|--------------------------|
B||--------------------------|--------------------------|
G||--------------------------|--------------------------| x4
D||--------------------------|--------------------------|
A||--7--7--------------7--5--|--7-----7-----------------|
E||--------0-----0-----------|-----------0--3--0--5-----|

VERSE 1
|--------------------------|--------------------------|
|--------------------------|--------------------------|
|--9--9--9--9--9-----------|--------------------------|
|--9--9--9--9--9-----5-----|--7--7--7--7--7-----5-----|
|--7--7--7--7--7-----5-----|--7--7--7--7--7-----5-----|
|--------------------3-----|--5--5--5--5--5-----3-----|

 
|--------------------------|--------------------------|
|--------------------------|--------------------------|
|--------------------------|--9--9--9--9--9-----------|
|--7--7--7--7--7-----5-----|--9--9--9--9--9-----7-----|
|--7--7--7--7--7-----5-----|--7--7--7--7--7-----7-----|
|--5--5--5--5--5-----3-----|--------------------5-----|


|--------------------------|--------------------------|
|--------------------------|--------------------------|
|--9--9--9--9--9-----------|--------------------------|
|--9--9--9--9--9-----5-----|--7--7--7--7--7-----5-----|
|--7--7--7--7--7-----5-----|--7--7--7--7--7-----5-----|
|--------------------3-----|--5--5--5--5--5-----3-----|


|--------------------------|--------------------------|
|--------------------------|--------------------------|
|--------------------------|--9--9--9--9--9-----------|
|--7--7--7--7--7-----5-----|--9--9--9--9--9-----7-----|
|--7--7--7--7--7-----5-----|--7--7--7--7--7-----7-----|
|--5--5--5--5--5-----3-----|--------------------5-----|

RIFF (before Verse 2)
|--------------------------|--------------------------|
|--------------------------|--------------------------|
|--------------------------|--------------------7-----|
|--------------------------|--------------5-----7-----|
|--7--7--------------7--5--|--7-----7-----5-----5-----|
|--------0-----0-----------|-----------0--3-----------|


(For verse 2, Guitar 1 plays the same as verse 1)


PRE CHORUS
|-------------------|-----------------------|-------------------|---------|
|-------------------|-----------------------|-------------------|---------|
|--4----------------|-----------------------|--2----------------|---------|
|--4----------------|-----------------------|--2----------------|---------|
|--2----------------|-----------------------|--0----------------|---------|
|-------------------|--------------0--3b5---|--x----------------|---------|

CHORUS
guitar 1
|--------------------------|--------------------------|
|--------------------------|--------------------------|
|--5--5-----5--5-----5-----|--7--7--------------7-----|
|--5--5-----5--5-----5-----|--7--7-----9--9-----7-----|
|--3--3-----3--3-----3-----|--5--5-----9--9-----5-----|
|--------------------------|-----------7--7-----------|


|--------------------------|--------------------------|
|--------------------------|--------------------------|
|--9--9-----9--9-----9-----|--9--9-----9--9-----9-----|
|--9--9-----9--9-----9-----|--9--9-----9--9-----9-----|
|--7--7-----7--7-----7-----|--7--7-----7--7-----7-----|
|--------------------------|--------------------------|


|--------------------------|--------------------------|
|--------------------------|--------------------------|
|--5--5-----5--5-----5-----|--7--7--------------7-----|
|--5--5-----5--5-----5-----|--7--7-----9--9-----7-----|
|--3--3-----3--3-----3-----|--5--5-----9--9-----5-----|
|--------------------------|-----------7--7-----------|


|--------------------------|--------------------------|
|--------------------------|--------------------------|
|--------------------------|--------------------------|
|--9--9--9--9--9--9--9--9--|--9--9--9--9--9--9--9-----|
|--9--9--9--9--9--9--9--9--|--9--9--9--9--9--9--9-----|
|--7--7--7--7--7--7--7--7--|--7--7--7--7--7--7--7-----|

Guitar 2(Through chorus)

|----------------------------------|----------------------------------|
|--12--12--12--12--12--12--12--12--|--12--12--12--12--12--12--12--12--|
|--12--12--12--12--12--12--12--12--|--11--11--11--11--11--11--11--11--|
|----------------------------------|----------------------------------|
|----------------------------------|----------------------------------|
|----------------------------------|----------------------------------|


|----------------------------------|----------------------------------|
|--12--12--12--12--12--12--12--12--|--12--12--12--12--12--12--12--12--|
|--12--12--12--12--12--12--12--12--|--12--14--14--14--14--12--12--12--|
|----------------------------------|----------------------------------|
|----------------------------------|----------------------------------|
|----------------------------------|----------------------------------|

Guitar 2 (through Verse 3)

|------------------------|-----------------------------|
|--9--9--9--9--9---------|--10--10--10--10--10---------|
|--9--9--9--9--9---------|---9---9---9---9---9---------|
|------------------------|-----------------------------|
|------------------------|-----------------------------|
|------------------------|-----------------------------|


|-----------------------------|------------------------|
|--10--10--10--10--10---------|--9--9--9--9--9---------|
|---9---9---9---9---9---------|--9--9--9--9--9---------|
|-----------------------------|------------------------|
|-----------------------------|------------------------|
|-----------------------------|------------------------|


|------------------------|-----------------------------|
|--9--9--9--9--9---------|--10--10--10--10--10---------|
|--9--9--9--9--9---------|---9---9---9---9---9---------|
|------------------------|-----------------------------|
|------------------------|-----------------------------|
|------------------------|-----------------------------|


|-----------------------------|------------------------|
|--10--10--10--10--10---------|--9--9--9--9--9---------|
|---9---9---9---9---9---------|--9--9--9--9--9---------|
|-----------------------------|------------------------|
|-----------------------------|------------------------|
|-----------------------------|------------------------|

Guitar 2 (Lead part in Chorus 2 after vocal line)

|--12--12--12--12--12--------12--12--|-------12--12-------12--12-------12--|
|--12--12--12--12--12--15b17---------|--15b17--------15b17--------15b17----|
|------------------------------------|-------------------------------------|
|------------------------------------|-------------------------------------|
|------------------------------------|-------------------------------------|
|------------------------------------|-------------------------------------|

Solo (this is where he plays it on the fret board, after checking a few live vids)

E||-----------------------------------|---------------------------------|
B||-----------------------------------|---------------------------------|
G||--2b4--2b4--2b4----2b4----2b4--2b4-|-----2b4----2b4--2b4r2--0--2-----|
D||-----------------------------------|---------------------------------|
A||-----------------------------------|---------------------------------|
E||-----------------------------------|---------------------------------|

        
|-------------------------------3b5-|-----3--0-----0--------|
|--------------------3b5r3---0------|-----------3--0--------|
|--2b4r2----0-----------------------|-----------------------|
|--------------2--0-----------------|-----------------------|
|-----------------------------------|-----------------------|
|-----------------------------------|-----------------------|


|-----15b17----15~-----15b17-|----15--15b17-15~------12------|
|----------------------------|---------------------------15--|
|----------------------------|-------------------------------|
|----------------------------|-------------------------------|
|----------------------------|-------------------------------|
|----------------------------|-------------------------------|

                                                    AH
--12------------------------------|-----------------------------------|
-------15-12----------------------|-----------------------------------|
--------------14b16r14--12--14b16-|-----14--12--14--<>12b----9--------|
----------------------------------|-----------------------------------|
----------------------------------|-----------------------------------|
----------------------------------|-----------------------------------|

               
-------------------|-------------------|-------------------|
-------------------|-------------------|-------------------|
--8----------------|-------------------|--6----------------|
-------------------|-------------------|-------------------|
-------------------|-------------------|-------------------|
-------------------|-------------------|-------------------|

then chorus an out, repeating only the first 2 bars of the chorus at the end

ENDS ON RIFF

|--------------------------|--------------------------||
|--------------------------|--------------------------||
|--------------------------|--------------------------||
|--------------------------|--------------------------||
|--7--7--------------7--5--|--7-----7-----------------||
|--------0-----0-----------|-----------0--3--0--5-----||

that should be everything you need to play the whole song!

Cheers, enjoy
Kane

Tablature Legend
----------------
AH - artificial harmonic
h - hammer on
p - pull off
b() - bend(fret)
r() - bendRelease(fret)
/ -  slide into from below or out of upwards
\ -  slide into from above or out of downwards
~ - vibrato
Tap to rate this tab
 
# A B C D E F G H I J K L M N O P Q R S T U V W X Y Z