Song name
# A B C D E F G H I J K L M N O P Q R S T U V W X Y Z

Jet - Move On tab

-------------------------------------------------------------------------------
			     MOVE ON - Jet (intro)
-------------------------------------------------------------------------------
Tabbed by: Roy Rebergen
Email: rhgrebergen@gmail.com

Tuning: Standard



e|-------10--10----------------------------------------------------10--------|
B|- 10b -------- 10pbr --8-- 8~ ----------8----------------8--10b----- 10pbr |
G|-------------------------------5-- 7/9 --- 9p7\5 --------------------------|
D|-------------------------------------------------- 7/9 --------------------|
A|---------------------------------------------------------------------------|
E|---------------------------------------------------------------------------|

e|---------------------- 10b -- 10pbr --8--7------10-------------------------|
B|--8--- 8h10 -- 10/13 --------------------- 10b ---- 10pbr --8-- 8~ --------|
G|----9----------------------------------------------------------------------|
D|---------------------------------------------------------------------------|
A|---------------------------------------------------------------------------|
E|---------------------------------------------------------------------------|

e|---------------------------------------------------------------------------|
B|---------------------------------------------------------------------------|
G|--9\7/9----7\5-------------------------------------------------------------|
D|---------------------------------------------------------------------------|
A|---------------------------------------------------------------------------|
E|---------------------------------------------------------------------------|



************************************

| /   slide up
| \   slide down
| h   hammer-on
| p   pull-off
| ~   vibrato
| +   harmonic
| x   Mute note
| b   Bend
| pb  Pre-bend
| br  Bend release
| pbr Pre-bend release
| brb Bend release bend

************************************
Tap to rate this tab
# A B C D E F G H I J K L M N O P Q R S T U V W X Y Z