Song name
# A B C D E F G H I J K L M N O P Q R S T U V W X Y Z

Jet - Look What Youve Done tab

Chords:

Oh Look What You've Done...

--1---3---0---0---0---3-------------------------------------------|
--1---3---1---1---1---3-------------------------------------------|
--2---0---0---0---2---0-------------------------------------------|
--3---0---2---2---2---0-------------------------------------------|
--3---2---3---2---0---2-------------------------------------------|
--1---3---------------3-------------------------------------------| repeat

A fool of everyone
A fool of everyone...

--3---4---6---1----------4---6---------------------|
--3---4---6---1----------4---6---------------------|
--4---5---7---2----------5---7---------------------|
--5---6---8---3----------6---8---------------------|
--5---6---8---3----------6---8---------------------|
--3---4---6---1-(repeat)-4---6---------------------|


at end

-----0-------------------------------------------|
-----1-------------------------------------------|
-----0-------------------------------------------|
-----2-------------------------------------------|
-----3-------------------------------------------|
-------------------------------------------------|
Tap to rate this tab
# A B C D E F G H I J K L M N O P Q R S T U V W X Y Z