Song name
# A B C D E F G H I J K L M N O P Q R S T U V W X Y Z

Jet - Get Me Outta Here tab

I was gonna do ‘are you gonna be my girl’ but then I saw how many of those there were…

b= bend
h= hammer on
P= pull off
x= mute
/= slide up to next note

E|---------------------------|---------------------------|
B|---------------------------|---------------------------|
G|---------------------------|---------------------------|
D|---------------------------|---------------------------|
A|---------------------------|---------------------------|
E|-5--5-3-5--5-0-3-5--5--5-3-|-5—-5-3-5--5-0-3-5-5--5----|


E|-0-------------------------|---------------------------|
B|-0-------------------------|---------------------------|
G|-0-------------------------|---------------------------|
D|-0-------------------------|---------------------------|
A|-0-------------------------|---------------------------|
E|-5--5-3-5--5-0-3-5--5--5-3-|-5—-5-3-5--5-0-3-5-5--5----|


E|---------------------------|---------------------------|
B|-2—-2---2--2-----2--2---2--|-2---2—--2—--2-----2---2---|
G|-2—-2---2--2-----2--2---2--|-2---2—--2—--2-----2---2---|
D|-2—-2---2--2-----2--2---2--|-2---2—--2—--2-----2---2---|
A|-0—-0---0--0-----0--0---0--|-0---0—--0—--0-----0---0---|
E|------3b-----0-3b--------3b|------3b-------0-3b--------|


		    I went down to the bank just to get me a pay.
E|---------------------------|---------------------------|
B|-2—-3-----2----------------|---------------------------|
G|-2—-2-----2----------------|---------------------------|
D|-2—-4-----2----------------|---------------------------|
A|-0—-0-----0----------------|---------------------------|
E|---------------------------|---------------------------|


I’m gonna get me, out of here.     I’ve got me some cash,
E|---------------------------|---------------------------|
B|-2—-2—-3-----3---3—-2---2--|-2------2------------------|
G|-2—-2—-2-----2---2—-2---2--|-2------2---------2--------|
D|-2—-2—-4-----4---4—-2---2--|-2---2—-2---2-----2--------|
A|-0—-0—-0-----0---0—-0---0--|-0---0—-0---3h4------------|
E|---------------------------|---------------------------|


I’m heading back to L.A., I’m gonna get me, outta here.
E|---------------------------|---------------------------|
B|-2—-2—-3-----3---3—-2---2--|-2h3-----2-----------------|
G|-2—-2—-2-----2---2—-2---2--|-2-------2-----------------|
D|-2—-2—-4-----4---4—-2---2--|-2h4-----2—----------------|
A|-0—-0—-0-----0---0—-0---0--|-0---—---0-----3--4--0-----|
E|---------------------------|---------------------------|


I’m sacking the man, ‘cause the man’s a thief.
E|---------------------------|---------------------------|
B|---2-2-2------2------------|---2-2-2------2-2----------|
G|---2-2-2------2------------|---2-2-2------2-2----------|
D|---2-2-2------2------------|---2-2-2------2-0----------|
A|---0-0-0------0------------|---0-0-0------0------------|
E|---------------------------|---------------------------|


E|---------------------------|---------------------------|
B|---2-2-2------2-2----------|---2-2-2------2-2----------|
G|---2-2-2------2-2----------|---2-2-2------2-2----------|
D|---2-2-2------2-0----------|---2-2-2------2-0----------|
A|---0-0-0------0------------|---0-0-0------0------------|
E|---------------------------|---------------------------|


I’m kicking the plan before the plan kicks me. 
E|---------------------------|---------------------------|
B|---2-2-2------2------------|---2-2-2------2-2----------|
G|---2-2-2------2------------|---2-2-2------2-2----------|
D|---2-2-2------2------------|---2-2-2------2-0----------|
A|---0-0-0------0------------|---0-0-0------0------------|
E|---------------------------|---------------------------|


I’m gonna get me          	 Get me outta here.    
E|-3-----3-------3---3-—3—-3-|-2—-2—-2—-2—-2—-2—-2—-2----|
B|-3-----3-------3---3—-3—-3-|-3—-3—-3—-3—-3—-3--3—-3----|
G|-0-----0-------0---0—-0—-0-|-2—-2—-2—-2—-2—-2—-2—-2----|
D|-0-----0-------0---0—-0—-0-|-0--0--0--0--0--0--0--0----|
A|-x-----x-------x---x—-x—-x-|---------------------------|
E|-3-----3-------3---3—-3-—3-|---------------------------|

									I’m gonna 
E|------—-—-—-—-—--—--—------|---------------------------|
B|-2—---2---—---2-—--2—------|-----2-----2-------2--2--2-|
G|-2—---2---—---2----2--—----|-----2-----2-------2--2--2-|
D|-2—---2---—---2----2-------|-----2-----2-------2--2--2-|
A|-0----0-------2----0-------|-----0-----0-------0--0--0-|
E|---------3b------------0---|-3b------------------------|


get me.	   Get me outta here.
E|-3-----3-------3---3-—3—-3-|-2—-2—-2—-2—-2—-2—-2—-2----|
B|-3-----3-------3---3—-3—-3-|-3—-3—-3—-3—-3—-3--3—-3----|
G|-0-----0-------0---0—-0—-0-|-2—-2—-2—-2—-2—-2—-2—-2----|
D|-0-----0-------0---0—-0—-0-|-0--0--0--0--0--0--0--0----|
A|-x-----x-------x---x—-x—-x-|---------------------------|
E|-3-----3-------3---3—-3-—3-|---------------------------|


				I went down to the Duke, ten time a day.
E|------—-—-—-—-—--—--—------|---------------------------|
B|-2—---2---—---2-—--2—------|-----2-----2---------------|
G|-2—---2---—---2----2--—----|-----2-----2---------------|
D|-2—---2---—---2----2-------|-----2-----2---------------|
A|-0----0-------2----0-------|-----0-----0---------------|
E|---------3b------------0---|-3b------------------------|


 I’m gonna get me            outta here.
E|---------------------------|---------------------------|
B|-2—-2—-3-----3---3—-2---2--|-2------2------------------|
G|-2—-2—-2-----2---2—-2---2--|-2------2---------2--------|
D|-2—-2—-4-----4---4—-2---2--|-2---2—-2---2-----2--------|
A|-0—-0—-0-----0---0—-0---0--|-0---0—-0---3h4------------|
E|---------------------------|---------------------------|


Drink all night and talking shit all day.    I’m gonna 
E|---------------------------|---------------------------|
B|---------------------------|----------------2--2--3----|
G|---------------------------|----------------2--2--2----|
D|---------------------------|----------------2--2--4----|
A|---------------------------|----------------0--0--0----|
E|---------------------------|---------------------------|


get me					outta here.		
E|---------------------------|---------------------------|
B|---3-----3---2------2------|--2------2-----------------|
G|---2-----2---2------2------|--2------2-----------------|
D|---4-----4---2------2------|--2------2-----------------|
A|---0-----0---0------0------|--0------0-----3—-4—-0-----|
E|---------------------------|---------------------------|


I’m sacking the man,  ‘cause the man’s a thief
E|---------------------------|---------------------------|
B|---2-2-2------2------------|---2-2-2------2-2----------|
G|---2-2-2------2------------|---2-2-2------2-2----------|
D|---2-2-2------2------------|---2-2-2------2-0----------|
A|---0-0-0------0------------|---0-0-0------0------------|
E|---------------------------|---------------------------|


E|---------------------------|---------------------------|
B|---2-2-2------2-2----------|---2-2-2------2-2----------|
G|---2-2-2------2-2----------|---2-2-2------2-2----------|
D|---2-2-2------2-0----------|---2-2-2------2-0----------|
A|---0-0-0------0------------|---0-0-0------0------------|
E|---------------------------|---------------------------|


I’m kicking the plan before the plan kicks me. 
E|---------------------------|---------------------------|
B|---2-2-2------2------------|---2-2-2------2-2----------|
G|---2-2-2------2------------|---2-2-2------2-2----------|
D|---2-2-2------2------------|---2-2-2------2-0----------|
A|---0-0-0------0------------|---0-0-0------0------------|
E|---------------------------|---------------------------|


I’m gonna get me          	 Get me outta here.    
E|-3-----3-------3---3-—3—-3-|-2—-2—-2—-2—-2—-2—-2—-2----|
B|-3-----3-------3---3—-3—-3-|-3—-3—-3—-3—-3—-3--3—-3----|
G|-0-----0-------0---0—-0—-0-|-2—-2—-2—-2—-2—-2—-2—-2----|
D|-0-----0-------0---0—-0—-0-|-0--0--0--0--0--0--0--0----|
A|-x-----x-------x---x—-x—-x-|---------------------------|
E|-3-----3-------3---3—-3-—3-|---------------------------|

									I’m gonna 
E|------—-—-—-—-—--—--—------|---------------------------|
B|-2—---2---—---2-—--2—------|-----2-----2-------2--2--2-|
G|-2—---2---—---2----2--—----|-----2-----2-------2--2--2-|
D|-2—---2---—---2----2-------|-----2-----2-------2--2--2-|
A|-0----0-------2----0-------|-----0-----0-------0--0--0-|
E|---------3b------------0---|-3b------------------------|


get me.	   Get me outta here.
E|-3-----3-------3---3-—3—-3-|-2—-2—-2—-2—-2—-2—-2—-2----|
B|-3-----3-------3---3—-3—-3-|-3—-3—-3—-3—-3—-3--3—-3----|
G|-0-----0-------0---0—-0—-0-|-2—-2—-2—-2—-2—-2—-2—-2----|
D|-0-----0-------0---0—-0—-0-|-0--0--0--0--0--0--0--0----|
A|-x-----x-------x---x—-x—-x-|---------------------------|
E|-3-----3-------3---3—-3-—3-|---------------------------|


E|---------------------------|---------------------------|
B|-2-------------------------|---------------------------|
G|-2-------------------------|---------------------------|
D|-2-------------------------|---------------------------|
A|-0-------------------------|---------------------------|
E|---------------------------|------------------------2/-|


E|---------------------------|---------------------------|
B|---------------------------|---------------------------|
G|---------------------------|---------------------------|
D|---------------------------|---------------------------|
A|---------------------------|---------------------------|
E|-5--5-3-5--5-0-3-5---5—-2/-|-5--5-3-5--5-0-3-5--5—-5-3-|


E|---------------------------|---------------------------|
B|---------------------------|---------------------------|
G|---------------------------|---------------------------|
D|---------------------------|---------------------------|
A|---------------------------|---------------------------|
E|-5--5-3-5--5-0-3-5--5--5-3-|-5—-5-3-5--5-0-3-5-5--5----|


E|---------------------------|---------------------------|
B|-2—-2---2--2-----2--2---2--|-2---2—--2—--2-----2-------|
G|-2—-2---2--2-----2--2---2--|-2---2—--2—--2-----2-------|
D|-2—-2---2--2-----2--2---2--|-2---2—--2—--2-----2-------|
A|-0—-0---0--0-----0--0---0--|-0---0—--0—--0-----0-------|
E|------3b-----0-3b--------3b|------3b-------0-3b---3-2-0|


I don’t mind how I live my life with out the luck you got.
E|-0-----0--------0---0---0--|-3-----3--------3---3------|
B|-0-----0--------0---0---0--|-3-----3--------3---3------|
G|-1-----1--------1---1---1--|-0-----0--------0---0------|
D|-2-----2--------2---2---2--|-0-----0--------0---0------|
A|-2-----2--------2---2---2--|-x-----x--------x---x------|
E|-0-----0--------0---0---0--|-3-----3--------3---3------|


E|---------------------------|---------------------------|
B|-2---2--------2--------2---|---------------------------|
G|-2---2--------2--------2---|----4b----4p2-----2--------|
D|-2---2--------2--------2---|---------------4--2--------|
A|-0---0---3/4------3/4------|----------------------2p0--|
E|---------------------------|---------------------------|


 But  I  ain’t  try’n’  to  keep  in  time, so  just  keep
E|-0-----0--------0---0---0--|-3-----3--------3---3------|
B|-0-----0--------0---0---0--|-3-----3--------3---3------|
G|-1-----1--------1---1---1--|-0-----0--------0---0------|
D|-2-----2--------2---2---2--|-0-----0--------0---0------|
A|-2-----2--------2---2---2--|-x-----x--------x---x------|
E|-0-----0--------0---0---0--|-3-----3--------3---3------|


 off of my ride
E|---------------------------|---------------------------|
B|-2---2--------2------------|---------------------------|
G|-2---2--------2--------4b--|-4---2-------2-------------|
D|-2---2--------2------------|-4-------4---2-------------|
A|-0---0---3/4------3/4------|-----------------3p0-------|
E|---------------------------|-----------------------3p0-|


You  won’t  hang  your  rusty  sign  on  me.
E|-0-----0--------0---0---0--|-3-----3--------3---3------|
B|-0-----0--------0---0---0--|-3-----3--------3---3------|
G|-1-----1--------1---1---1--|-0-----0--------0---0------|
D|-2-----2--------2---2---2--|-0-----0--------0---0------|
A|-2-----2--------2---2---2--|-x-----x--------x---x------|
E|-0-----0--------0---0---0--|-3-----3--------3---3------|


E|-2-------------------------|---------------------------|
B|-3-------------------------|---------------------------|
G|-2-------------------------|---------------------------|
D|-0-------------------------|---------------------------|
A|---------------------------|---------------------------|
E|---------------------------|---------------------------|


E|---------------------------|---------------------------|
B|---------------------------|---------------------------|
G|-2---2--------2---2--------|-2---2--------2---2--------|
D|-2---2--------2---2--------|-2---2--------2---2--------|
A|---------------------------|---------------------------|
E|---------------------------|---------------------------|


 I  went  down  to  bank  just  to  get  me  my  pay.
E|---------------------------|---------------------------|
B|---------------------------|---------------------------|
G|-2---2--------2---2--------|-2---2--------2---2--------|
D|-2---2--------2---2--------|-2---2--------2---2--------|
A|---------------------------|---------------------------|
E|---------------------------|---------------------------|


 						Get  me  out  of  here.
E|-3-----3-------3---3-—3—-3-|-2—-2—-2—-2—-2—-2—-2—-2----|
B|-3-----3-------3---3—-3—-3-|-3—-3—-3—-3—-3—-3--3—-3----|
G|-0-----0-------0---0—-0—-0-|-2—-2—-2—-2—-2—-2—-2—-2----|
D|-0-----0-------0---0—-0—-0-|-0--0--0--0--0--0--0--0----|
A|-x-----x-------x---x—-x—-x-|---------------------------|
E|-3-----3-------3---3—-3-—3-|---------------------------|


E|------—-—-—-—-—--—--—------|---------------------------|
B|-2—---2---—---2-—--2—------|-----2-----2-------2--2--2-|
G|-2—---2---—---2----2--—----|-----2-----2-------2--2--2-|
D|-2—---2---—---2----2-------|-----2-----2-------2--2--2-|
A|-0----0-------2----0-------|-----0-----0-------0--0--0-|
E|---------3b------------0---|-3b------------------------|


 I’m  gonna  get  me.		Get  me  out  of  here, yeah!
E|-3-----3-------3---3-—3—-3-|-2—-2—-2—-2—-2—-2—-2—-2----|
B|-3-----3-------3---3—-3—-3-|-3—-3—-3—-3—-3—-3--3—-3----|
G|-0-----0-------0---0—-0—-0-|-2—-2—-2—-2—-2—-2—-2—-2----|
D|-0-----0-------0---0—-0—-0-|-0--0--0--0--0--0--0--0----|
A|-x-----x-------x---x—-x—-x-|---------------------------|
E|-3-----3-------3---3—-3-—3-|---------------------------|


E|------—-—-—-—-—--—--—------|---------------------------|
B|-2—---2---—---2-—--2—------|-----2-----2-------2--2--2-|
G|-2—---2---—---2----2--—----|-----2-----2-------2--2--2-|
D|-2—---2---—---2----2-------|-----2-----2-------2--2--2-|
A|-0----0-------2----0-------|-----0-----0-------0--0--0-|
E|---------3b------------0---|-3b------------------------|


I’m  gonna  get  me.		Get  me  out  of  here
E|-3-----3-------3---3-—3—-3-|-2—-2—-2—-2—-2—-2—-2—-2----|
B|-3-----3-------3---3—-3—-3-|-3—-3—-3—-3—-3—-3--3—-3----|
G|-0-----0-------0---0—-0—-0-|-2—-2—-2—-2—-2—-2—-2—-2----|
D|-0-----0-------0---0—-0—-0-|-0--0--0--0--0--0--0--0----|
A|-x-----x-------x---x—-x—-x-|---------------------------|
E|-3-----3-------3---3—-3-—3-|---------------------------|


E|------—-—-—-—-—--—--—------|---------------------------|
B|-2—---2---—---2-—--2—------|-----2-----2-------2--2--2-|
G|-2—---2---—---2----2--—----|-----2-----2-------2--2--2-|
D|-2—---2---—---2----2-------|-----2-----2-------2--2--2-|
A|-0----0-------2----0-------|-----0-----0-------0--0--0-|
E|---------3b------------0---|-3b------------------------|


I’m  gonna  get  me.		Get  me  out  of  here
E|-3-----3-------3---3-—3—-3-|-2—-2—-2—-2—-2—-2—-2—-2----|
B|-3-----3-------3---3—-3—-3-|-3—-3—-3—-3—-3—-3--3—-3----|
G|-0-----0-------0---0—-0—-0-|-2—-2—-2—-2—-2—-2—-2—-2----|
D|-0-----0-------0---0—-0—-0-|-0--0--0--0--0--0--0--0----|
A|-x-----x-------x---x—-x—-x-|---------------------------|
E|-3-----3-------3---3—-3-—3-|---------------------------|


E|------—-—-—-—-—--—--—------|-------------2-------------|
B|-2—---2---—---2-—--2—------|-----2-------3-----------2-|
G|-2—---2---—---2----2--—----|-----2-------2-----------2-|
D|-2—---2---—---2----2-------|-----2-------0-----------2-|
A|-0----0-------2----0-------|-----0-------------------0-|
E|---------3b------------0---|-3b------------------------|

Tap to rate this tab
# A B C D E F G H I J K L M N O P Q R S T U V W X Y Z