Song name
# A B C D E F G H I J K L M N O P Q R S T U V W X Y Z

Jet - Put Your Money Where Youre Mouth Is tab

Artist: Jet
Song: Put Your Money Where Youre Mouth Is
Album: Shine On (Oct 3rd)
Tabbed By: Anthony Stone

I saw Jet play this song at their homecoming concert in Sydney on the 17th August.

Main Riff:
e|-------------------------|
b|-------------------------|
g|-------------------------|
D|-------------------------|
A|--222-5-----------2---2--|
E|--------5555--555---5----|

Verse: 
e|------------------------------------|
b|------------------------------------|
g|--4~-----4~----------------4~-------|
D|--4~--77-4~-77-4~-77-2~-77-4~-------|
A|--2~--77-2~-77-4~-77-2~-77-2~-2525--|
E|------55----55-2~-55-0~-55----------|

Chorus:
e|--------------------------------------|
b|--------------------------------------|
g|-77777-------------77777-------44444--|
D|-77777-77777-22222-77777-77777-44444--|
A|-55555-77777-22222-55555-77777-22222--|
E|-------55555-00000-------55555--------|
Tap to rate this tab
# A B C D E F G H I J K L M N O P Q R S T U V W X Y Z