Song name
# A B C D E F G H I J K L M N O P Q R S T U V W X Y Z

Jethro Tull - Beggars Farm tab

BEGGAR'S FARM
JETHRO TULL


|--------------|
|--------------|
|---3----6-5-3-|
|-5---5--------|
|--------------|
|--------------|

|----------------|
|----------------|
|---3------------|
|-5---5-----7--5-|
|-------5-6-5--3-|
|----------------|

Someone please put up the rest of the tab, this was all I could figure out.

It's the only fun part though...

Enjoy
-yoyolll
Tap to rate this tab
 
# A B C D E F G H I J K L M N O P Q R S T U V W X Y Z