Song name
# A B C D E F G H I J K L M N O P Q R S T U V W X Y Z

Jethro Tull - Driving Song tab

-----------------------------------------------------------------------------
			     Driving Song - Jethro Tull
-----------------------------------------------------------------------------
Tabbed by: -Carl.
Email: -mutatedidiot@aol.com

Tuning: -Standard.

e|----------------------------------------------------|
B|----------------------------------------------------|
G|------5---------------------------------------------|
D|--6-7---6-7-----------------------------------------|
A|------------6-7-5-7---------------------------------|
E|--------------------5-------------------------------|

Simple as sex.
Tap to rate this tab
# A B C D E F G H I J K L M N O P Q R S T U V W X Y Z