Song name
# A B C D E F G H I J K L M N O P Q R S T U V W X Y Z

Jethro Tull - Hymn 43 tab

E|--------------------------------13-----------------------------|
B|-----------------------------10----10--------------------------|
G|-------------12-10-10--12b10----------10-----------12b10-12-10-|
D|---12-10-12------------------------------12--12-10-------------|
A|---------------------------------------------------------------|
E|---------------------------------------------------------------|

E|------------------10bf-------------------|
B|---------------10-----10--10-------------|
G|------------10--------------12-10-12-10--|
D|---12-10-12------------------------------|
A|-----------------------------------------|
E|-----------------------------------------|

E|--13bf13-13-10-8-13-10-8-13-10-8---------|
B|---------------------------------13bf13--|
G|-----------------------------------------|
D|-----------------------------------------|
A|-----------------------------------------|
E|-----------------------------------------|


*****************************
* By .Rod                   *
*                           *
* rodrigo_bg91@hotmail.com  *
*****************************


Tap to rate this tab
# A B C D E F G H I J K L M N O P Q R S T U V W X Y Z