Song name
# A B C D E F G H I J K L M N O P Q R S T U V W X Y Z

Jethro Tull - Teacher tab

I'm 90+% sure this is right and i have parts to play thru the whole song
but not every guitar part so i hope u enjoy learning to play "Teacher" by
the great band Jethro Tull

I made this tab (my first) because i wanted to learn this song and ultimate
guitar didnt have it so i learned it by ear, watching jethro tull play it
live on youtube, and watched the lead guitar part of a cover of this song on youtube.
 if theres a problem comment on it i'll check it out and fix it if
needed.

Thanks,
        T-struck1065

Intro: 0:00-0:15

e-----------------|
B-----------------|
G--9-9---7-7--9-9-|
D--9-9---7-7--9-9-|   repeat 4x
A--7-7---5-5--7-7-|
E-----------------|

Verse 0:16-0:46,1:15-1:30 but on this time thru Martin Barr adds some fills
and appreggios (all with the chords used) that u can improv on, 2:44-2:59
on this time there is an overdubbed guitar playing riffs which i dnt have
yet :( srry

e-----------------------------|
B-----------------------------|
G--9-9--9-9-7--7-7--7-7/10-10-|
D--9-9--9-9-7--7-7--7-7/10-10-|   repeat 7x, repeat 4x
A--7-7--7-7-5--5-5--5-5/8--8--|
E-----------------------------|

Then on the last (7th,4th,4th) time play
e----------------------|
B----------------------|
G--9-9--9-9-7--7-7-9-9-|
D--9-9--9-9-7--7-7-9-9-|
A--7-7--7-7-5--5-5-7-7-|
E----------------------|

Chorus 0:47-1:00, 1:31-1:44,3:00-3:14

e--------------------|
B--------------------|
G--7-77-5-5--9-9-7-5-|
D--7-77-5-5--9-9-7-5-|  repeat 4x
A--5-55-3-3--7-7-5-3-|
E--------------------|

On the 4th time play
e-----------|
B-----------|
G--7-77-5-5-|
D--7-77-5-5-|
A--5-55-3-3-|
E-----------|

Interlude riff 1:01-1:14,1:45-2:00, 2:30-2:45,3:15-til end of song

e------------------------------|
B------------------------------|
G----------7h9v----------------|
D------7h9-------------5-5h7-7-|  repeat 4x
A--7h9-----------5-5h7---------|
E------------------------------|

on the 4th time play
e----------------------|
B----------------------|
G----------7h9v--------|
D------7h9-------------|
A--7h9----------5-5h7--|
E----------------------|

Solo 2:01-2:29 because i'm tabbin this for 1 guitar so i'll add the rhythm
part as the lead guitar along with the solo. this makes it easier if you're
playing it in front of an audience and only have one guitarist

e---------------------------------------------------------------------------|
B---------------------------------------------------------------------------|
G--5-7-5---------------------5-7-5---------------------5-7-5--5-7-5---------|
D--5-7-5---------------------5-7-5---------------------5-7-5--5-7-5---------|
A--3-5-3---------------------3-5-3----------------3----3-5-3--3-5-3----3----|
E--------[5h7p5h7p5-3-5]-----------[5h7p5h7p5-3-5---5]--------------[5---5]-|
notes in brackets may be played by the bass i'm not sure, they're not easy
to hear and prally doesn't need to be played but i put them there bc theyre
in the song and i figured them out

e----------------------------------------------------------------|
B----------------------------------------------------------------|
G--5-7-5---------5-7-5---5-7p5-7p5-7-7p5-7p5-----------------5---|
D--5-7-5---------5-7-5-----------------------7---7p5-7p5-7p5---7-|
A--3-5-3----3----3-5-3-------------------------------------------|
E--------[5---5]-------------------------------------------------|

E----------------------------|
B--8h10p8-10p8-10p8-8h10p8---|
G--------------------------9-|
D----------------------------|
A----------------------------|
E----------------------------|

Sorry no outro solo :( improv its funner anyway :)


legend
h= hammer on
p=pull off
/= slide
v= vibrato

if u r confused by the way i have it layed out maybe this will help
intro 4x
verse 7x
chorus 4x
interlude riff 4x
verse 4x
chorus 4x
interlude riff 4x
solo
interlude riff 4x
verse 4x
chorus 4x
interlude riff til end of song
Tap to rate this tab
# A B C D E F G H I J K L M N O P Q R S T U V W X Y Z