Song name
# A B C D E F G H I J K L M N O P Q R S T U V W X Y Z

Jethro Tull - Heavy Horses tab

This is my second tab now, the intro of


 ------------------------------------
 || HEAVY HORSES  ---  JETHRO TULL ||
 ------------------------------------


e|---------------------------------------------|
B|-6-6-5-------------5-6-6-5---------------5h6-|
G|-------7-3---7-5-7---------7-3---3h5/7-7-----|
D|---------------------------------------------|
A|---------------------------------------------|
E|---------------------------------------------|

e|-------------------------------------------------|
B|-6-6-5-------------5-6-6-5---------------5h6-6/8-|
G|-------7-3---7-5-7---------7-3---3h5/7-7---------|
D|-------------------------------------------------|
A|-------------------------------------------------|
E|-------------------------------------------------|

e|-------------------------------------------|
B|-10-13-13b(15)-13-13b(15)-13-13b(15)-11----|
G|----------------------------------------10-|
D|-------------------------------------------|
A|-------------------------------------------|
E|-------------------------------------------|

e|----------------------------------------------------------------|
B|-10-10h11p10-8----8h10p8------8-10/11\10---10h11p10-8----8h10p8-|
G|---------------10----------10-------------------------10--------|
D|----------------------------------------------------------------|
A|----------------------------------------------------------------|
E|----------------------------------------------------------------|

e|-----------------5---|
B|----8------------5---|
G|-10---10p9-7-----8---|
D|-----------------7---|
A|-----------------7---|
E|-----------------5---|
Tap to rate this tab
# A B C D E F G H I J K L M N O P Q R S T U V W X Y Z