Song name
# A B C D E F G H I J K L M N O P Q R S T U V W X Y Z

Jethro Tull - Locomotive Breath tab

Im not going to tab the begining solo... it is derived from the E minor pentatonic 
scales and is pretty simple to learn by ear.


Guitar 1

e|---------3---2-------x-x--x-x--x-x--x-x-|
B|---------0---3-------x-x--x-x--x-x--x-x-|
G|---------0---2-------x-x--x-x--x-x--x-x-|
D|-2-2-2---0---0---2---x-x--x-x--x-x--x-x-|   x3
A|-2-2-2---2-------2---x-x--x-x--x-x--x-x-|
E|-0-0-0---3-------0---x-x--x-x--x-x--x-x-|

Guitar 1

e|---------3---2-------x-x--x-x--x-x--x-x-|
B|---------0---3-------x-x--x-x--x-x--x-x-|
G|---------0---2-------x-x--x-x--x-x--x-x-|
D|-2-2-2---0---0---2---x-x--x-x--x-x--x-x-|
A|-2-2-2---2-------2---x-x--x-x--x-x--x-x-|
E|-0-0-0---3-------0---x-x--x-x--x-x--x-x-|

Guitar 2

e|-----------------------|
B|-----------------------|
G|-----------------------|
D|------------------0--2-|
A|--------2-0-0-2--------|
E|-----------------------|

Guitar 1

e|---------3---2-------x-x--x-x--x-x--x-x-|
B|---------0---3-------x-x--x-x--x-x--x-x-|
G|---------0---2-------x-x--x-x--x-x--x-x-|
D|-2-2-2---0---0---2---x-x--x-x--x-x--x-x-|
A|-2-2-2---2-------2---x-x--x-x--x-x--x-x-|
E|-0-0-0---3-------0---x-x--x-x--x-x--x-x-|

Guitar 2

e|-------------------------|
B|-------------------------|
G|-------------------------|
D|--------x-x-x----5p0---2-|
A|-------------------------|
E|-------------------------|

Guitar 1

e|---------3---2-------x-x--x-x--x-x--x-x-|
B|---------0---3-------x-x--x-x--x-x--x-x-|
G|---------0---2---4---x-x--x-x--x-x--x-x-|
D|-2-2-2---0---0---4---x-x--x-x--x-x--x-x-|
A|-2-2-2---2-------2---x-x--x-x--x-x--x-x-|
E|-0-0-0---3-----------x-x--x-x--x-x--x-x-|

Guitar 2

e|-----------------------|
B|-----------------------|
G|-----------------------|
D|---------2-0-0-2-------|
A|------------------0-2--|
E|-----------------------|

Guitar 1

e|-------------2-------x-x--x-x--x-x--x-x-|
B|-------------3-------x-x--x-x--x-x--x-x-|
G|-4-4-4-4-----2-------x-x--x-x--x-x--x-x-|
D|-4-4-4-4-----0---2---x-x--x-x--x-x--x-x-|
A|-2-2-2-2---------2---x-x--x-x--x-x--x-x-|
E|-----------------0---x-x--x-x--x-x--x-x-|

Guitar 2

e|----------------------------|
B|----------------------------|
G|------------2-2--0-2-0------|
D|--------2-0--------------0h2|
A|----------------------------|
E|----------------------------|

Guitar 1

e|---------3---2-------x-x--x-x--x-x--x-x-|
B|---------0---3-------x-x--x-x--x-x--x-x-|
G|---------0---2-------x-x--x-x--x-x--x-x-|
D|-2-2-2---0---0---2---x-x--x-x--x-x--x-x-|
A|-2-2-2---2-------2---x-x--x-x--x-x--x-x-|
E|-0-0-0---3-------0---x-x--x-x--x-x--x-x-|

Guitar 2

e|-----------------------|
B|-----------------------|
G|-----------------------|
D|----------------0--2---|
A|----0-0-2-0-0----------|
E|-----------------------|

Guitar 1

e|---------3---2-------x-x--x-x--x-x--x-x-|
B|---------0---3-------x-x--x-x--x-x--x-x-|
G|---------0---2-------x-x--x-x--x-x--x-x-|
D|-2-2-2---0---0---2---x-x--x-x--x-x--x-x-|
A|-2-2-2---2-------2---x-x--x-x--x-x--x-x-|
E|-0-0-0---3-------0---x-x--x-x--x-x--x-x-|

Guitar 2

e|--------------------------------------------------------------------------|
B|-----------------------------10-----10----10----10------------------------|
G|-----------------------------12b14--12b14-12b14-12b14---------------------|
D|---------x-x-x----------5p2-----------------------------------------------|
A|---------x-x-x---0-2------------------------------------------------------|
E|--------------------------------------------------------------------------|

------------------------------|
----10-----10----10----10-----|
----12b14--12b14-12b14-12b14--|
------------------------------|
------------------------------|
------------------------------|

He basically repeats all of that but he changes the Guitar 2 parts around a little bit 
every time so be creative and try and mix it up a bit!
Tap to rate this tab
 
# A B C D E F G H I J K L M N O P Q R S T U V W X Y Z