Song name
# A B C D E F G H I J K L M N O P Q R S T U V W X Y Z

Jethro Tull - Aqualung tab

None of the intro tabs on this site look right.  This is my version--although I just 
listened to the song and found out what I had been playing needed some correction.  Listen 
to the song to get the timing:

e|---------------------------------------------------------------------|
B|---------------------------------------------------------------------|
G|---------------------------------------------------------------------|
D|------------------6--6--6--6/8--8--8--8--10-10-10--------------------|
A|-5-------3--4--3--4--4--4--4/6--6--6--6---8--8--8--6--8--6--8--9--11-|
E|----3--6----------------------------------------------------------9--|


e|----------------------------------|
B|----------------------------------|
G|----------------------------------|
D|----------------6--6-----------6--|
A|-8--8--8--8--6--------9--6-----4--|
E|----------------------------6-----|

Doing these out by hand sure is a pain in the ass.  Ah well, take it or leave it.
Tap to rate this tab
 
# A B C D E F G H I J K L M N O P Q R S T U V W X Y Z