Song name
# A B C D E F G H I J K L M N O P Q R S T U V W X Y Z

Jethro Tull - Locomotive Breath tab

Verse (3x):

e--------------------------------|--X-X-X-X-X-X-X--|------------------------------|--X-X-X-X-X-X-X----|
b--------------------------------|--X-X-X-X-X-X-X--|------------------------------|--X-X-X-X-X-X-X----|
g----9--9--9-----12-----7-----9--|--X-X-X-X-X-X-X--|--9--9--9-----12-----7-----9--|--X-X-X-X-X-X-X----|
D----9--9--9-----12-----7-----9--|--X-X-X-X-X-X-X--|--9--9--9-----12-----7-----9--|--X-X-X-X-X-X-X----|
A----7--7--7-----10-----5-----7--|--X-X-X-X-X-X-X--|--7--7--7-----10-----5-----7--|--X-X-X-X-X-X-X----|
E--------------------------------|--X-X-X-X-X-X-X--|------------------------------|--X-X-X-X-X-X-X----|


then bridge (1x):


e--------------------------------|--X-X-X-X-X-X-X--|------------------------------|--X-X-X-X-X-X-X----|
b--------------------------------|--X-X-X-X-X-X-X--|------------------------------|--X-X-X-X-X-X-X----|
g----9--9--9-----12-----7--------|--X-X-X-X-X-X-X--|-----------------7-----9------|--X-X-X-X-X-X-X----|
D----9--9--9-----12-----7-----9--|--X-X-X-X-X-X-X--|--9--9--9--9-----7-----9------|--X-X-X-X-X-X-X----|
A----7--7--7-----10-----5-----9--|--X-X-X-X-X-X-X--|--9--9--9--9-----5-----7------|--X-X-X-X-X-X-X----|
E-----------------------------7--|--X-X-X-X-X-X-X--|--7--7--7--7------------------|--X-X-X-X-X-X-X----|


then verse (1x):


e--------------------------------|--X-X-X-X-X-X-X--|------------------------------|--X-X-X-X-X-X-X----|
b--------------------------------|--X-X-X-X-X-X-X--|------------------------------|--X-X-X-X-X-X-X----|
g----9--9--9-----12-----7-----9--|--X-X-X-X-X-X-X--|--9--9--9-----12-----7-----9--|--X-X-X-X-X-X-X----|
D----9--9--9-----12-----7-----9--|--X-X-X-X-X-X-X--|--9--9--9-----12-----7-----9--|--X-X-X-X-X-X-X----|
A----7--7--7-----10-----5-----7--|--X-X-X-X-X-X-X--|--7--7--7-----10-----5-----7--|--X-X-X-X-X-X-X----|
E--------------------------------|--X-X-X-X-X-X-X--|------------------------------|--X-X-X-X-X-X-X----|


then chorus (1x):


e--------------------------------------------------|------------------------------|--X-X-X-X-X-X-X----|
b--------------------------------------------------|------------------------------|--X-X-X-X-X-X-X----|
g--------------------------------------------------|-----------------7-----9------|--X-X-X-X-X-X-X----|
D----5--5--5--5-------7--7--7--7-------9-----------|--9--9--9--9-----7-----9------|--X-X-X-X-X-X-X----|
A----5--5--5--5-------7--7--7--7-------9-----------|--9--9--9--9-----5-----7------|--X-X-X-X-X-X-X----|
E----3--3--3--3-------5--5--5--5-------7-----------|--7--7--7--7------------------|--X-X-X-X-X-X-X----|


then back verse again and repeat from the beginning.
Tap to rate this tab
 
# A B C D E F G H I J K L M N O P Q R S T U V W X Y Z