Song name
# A B C D E F G H I J K L M N O P Q R S T U V W X Y Z

Jethro Tull - Its Breaking Me Up tab

It's Breaking Me Up
Jethro Tull
This Was

Standard Tuning

Intro

e--------------------------------|
B-9^(10)-9-7---------------------|
G------------9-7^----------------|
D-----------------7----7h9--9----|  repeat 3x
A-------------------7-------9----|
E--------------------------------|

Solo

e--------------|-----------------------------|
B-9^(10)-9-7---|-----------------------------|
G------------9-|-7^-7^-7^---9^--7---9-7------|
D--------------|----------9-------9-----9~~~-|
A--------------|-----------------------------|
E--------------|-----------------------------|

e-------------------------------------------|
B-7-10-10^--7-------------------------------|
G----------------9-7-9-7~~~-----------------|
D--------------9----------------------------|
A-------------------------------------------|
E-------------------------------------------|

e--------------------------------------------|
B--------------------------------------------|
G--------------------------------------------|
D-------7h9-9^(12)-7h9-7---------------------|
A-5h7/9------------------9~~~----------------|
E--------------------------------------------|

e--------------------------------------------|
B--------------------------------------------|
G--------------------------------------------|
D-7h9-7h9------------------------------------|
A----------9\7-5h7-5-------------------------|
E---------------------7~~~~------------------|

Play the intro riff for the verses.

^=bend
h=hammer on
~=vibrato
/= slide up to...
\=slide down to...


By Soul Chaser
Fin.
Tap to rate this tab
 
# A B C D E F G H I J K L M N O P Q R S T U V W X Y Z