Song name
# A B C D E F G H I J K L M N O P Q R S T U V W X Y Z

Jets To Brazil - King Medicine tab

For the intro its standard tuning

E-----------------------------------------------------------------|
B-------------12-12-12-12-10--1010-10-------12--------7h8p7-5-7---|
G-13-13-14-14-------------------------6--9------5--9--------------|
D-----------------------------------------------------------------|
A-----------------------------------------------------------------|
E-----------------------------------------------------------------|

Next is Same as beginning, but different notes

E-----------------------------------------------------------------|
B-9-9-10-10-12-12-12-12-10--1010-10------12------7h8p7-5-7--------|
G-----------------------------------6--9----5--9------------------|
D-----------------------------------------------------------------|
A-----------------------------------------------------------------|
E-----------------------------------------------------------------|

Now

E-----------------------------------------------------------------|
B---------9h10p9--12-----------9h10p9--7--------------------------|
G-----------------------------------------------------------------|
D--6--------------------6-----------------------------------------|
A-----------------------------------------------------------------|
E-----------------------------------------------------------------|

Thats the intro, enjoy. -Evan P.
Tap to rate this tab
# A B C D E F G H I J K L M N O P Q R S T U V W X Y Z