Song name
# A B C D E F G H I J K L M N O P Q R S T U V W X Y Z

Jets To Brazil - Lemon Yellow Black tab

Band: Jets To Brazil
Song: Lemon Yellow Black
Album:Orange Rhyming Dictionary

Intro: Guitar1 plays x3 Guitar2 plays x2
e|-------------------------------------|
b|-------------------------------------|
g|--99x9-99x9-1111x11-1111x11-1212x12--|
d|--xxxx-xxxx--x-xx-x--x-xx-x--x-xx-x--|
a|--77x7-77x7--7-7x-7--7-7x-7-1010x10--|
e|-------------------------------------|

Verse (bass)

prechorus Guitar1- verse2 x2

guitar2
e|-------------------|
b|-------------------|
g|-------------------|
d|-------------------|
a|--9---11---12---9--|
e|-------------------|

Chorus (both guitars) x2
e|--------------------------------------|
b|--------------------------------------|
g|--------------------22222222----------|
d|--22222222-44444444-22222222-22222222-|
a|--22222222-44444444-00000000-22222222-|
e|--00000000-22222222----------00000000-|

solo (guitar 1) !guitar2 plays chorus! /-slide x-vibrato
e|-----------------------------|
b|-----------------------------|
g|--9/11--11-9----9-11---------|
d|-------------9v--------------|
a|---------------------7--9-10-|
e|-----------------------------|

prechorus'
chorus'

bridge x4 !im only tabbing the 1st guitar...cant hear the second too well!
e|-----------|
b|-----------|
g|--2-----4--|
d|--2---2-4--|
a|--0---2-2--|
e|------0----|

outro !ill tab the outro solo some other time!
e|--00-0-00-0-|
b|------------|
g|------------|
d|------------|<<<
Tap to rate this tab
 
# A B C D E F G H I J K L M N O P Q R S T U V W X Y Z