Song name
# A B C D E F G H I J K L M N O P Q R S T U V W X Y Z

Jets To Brazil - Youre Having The Time Of My Life tab

song: Youre having the time of my life
band: jets to brazil
album: four cornered night
tuning: standard

intro  x6
e|---------------------|
b|---------------------|
g|-----------12----11--|
d|-----10-------10-----|
a|--12----12-----------|
e|---------------------|

intropt2 x1
e|----------------------------------|
b|----------------------------------|
g|------------444444-777777-999999--|
d|--7--777777-xxxxxx-xxxxxx-xxxxxx--|
a|--7--777777-222222-555555-777777--|
e|--5--555555-----------------------|

verse
e|------------------------------------|
b|------------------------------------|
g|--------------------7-7-7-7-7-7-7-7-|
d|--7-7-7-7--2-2-2-2--7-7-7-7-7-7-7-7-|
a|--7-7-7-7--2-2-2-2--5-5-5-5-5-5-5-5-|
e|--5-5-5-5--0-0-0-0------------------|

riff
a|-0h2h5-0h2h5-0h2h5-0h2h5--777777777777-|


chorus  !lead is in parentheses!
e|-!------rhythm guitar continues----!|--
g|------------------------------------|-------------------------------------
b|-----------7-7-7-7--5-5-5-5-5-5-5-5-|(12-12-12-12-11-11-11-11-12-12-12-12)
d|--5-5-5-5--7-7-7-7--5-5-5-5-5-5-5-5-|(-x--x--x--x--x--x--x--x--x--x--x--x)
a|--5-5-5-5--5-5-5-5--3-3-3-3-3-3-3-3-|(10-10-10-10--9--9--9--9-10-10-10-10)
e|--3-3-3-3-----------------(8-7-5-3)-|-------------------------------------

postchorus x2
e|-----------------------------
b|-----------------------------
g|-----------------------------
d|----4-5----4-5----4-5----4-5-
a|--3------5------7------5-----
e|-----------------------------

intro x2

bridge
e|-----------------------------------------------------------|
b|--------------------------5---------------------------8-7--|
g|--77----5-7-7p5---77--5-7---7p5---77----5-7-7p5----7-5-----|
d|--77--7--------7--77-----------7--77--7--------7--7-7------|
a|--55--------------55--------------55-----------------------|
e|-----------------------------------------------------------|

!quiet first half of second verse!
versex2
chorus
bridge

*if i had another...* leadgtr    *if i had another...*ryhtmgtr
e|-----------------|             e|--2222222222222222-3333333333333333--|
b|------6----------|             b|--3333333333333333-5555555555555555--|
g|--4-7---4-----4--|             g|--4444444444444444-5555555555555555--|
d|----------7-5--7-|             d|--4444444444444444-5555555555555555--|
a|-----------------|             a|--2222222222222222-3333333333333333--|
e|-----------------|             e|-------------------------------------|

*and we met again...*
e|-----------------------------33333333--|
b|-----------------------------44444444--|
g|--77777777-66666666-55555555-55555555--|
d|--77777777-66666666-55555555-55555555--|
a|--55555555-44444444-33333333-33333333--|
e|---------------------------------------|
PM  ........ ........ ........

bridge
end on a|-7-|
Tap to rate this tab
 
# A B C D E F G H I J K L M N O P Q R S T U V W X Y Z