Song name
# A B C D E F G H I J K L M N O P Q R S T U V W X Y Z

Jets To Brazil - Air Traffic Control tab

Air Traffic Control - Jets To Brazil
Four Cornered Night was the album
cocktailrevisionist@gmail.com<----send corrections
Tabbed by Grendel & EnD iS FoReVeR

Intro:
e|-----------------|-Play 6 Times---------|--Both Guitars-|
B|-----5--6-5------|-Whilst---------------|---------------|
G|------------5----|-Rhythm Guitar--------|--5------------|
D|--------------5--|-Strums C cord--------|--5------------|
A|-3---------------|----------------------|--3------------|
E|-----------------|-----------Then ----->|---------------|
Aside from the in-
tro, any time when
the lead plays ^^^
that little riff,
guitar two plays this:
Fill
e|-----------------|
B|-----------------|
G|--------5--------|
D|-----2------2----| 
A|-3------------3--| 
E|-----------------|


Verse
              C
e|----------------------------------------------------|
B|------------5---------------------------------------|
G|------------5---------------------------------------|
D|------------5---------------------------------------|
A|------------3---------------------------------------|
E|----------------------------------------------------|
Air traffic control its me, coach class row thirteen
            F                                       C
e|------------------------------------------------------------------------|
B|----------1--------------------------------------------5--6-5-----------|
G|----------2---------------------------------------------------5---5-----|
D|----------3----------------------------------------5------------5-5-----|
A|----------3----------------------------------------3--------------3-----|
E|----------1-------------------------------------------------------------|
I've got this sinking feeling, is everything all right
           C
e|-------------------------------------------------|
B|---------5---------------------------------------|
G|---------5---------------------------------------|
D|---------5---------------------------------------|
A|---------3---------------------------------------|
E|-------------------------------------------------|
Stare at the wing and think, its later than I think

                F                                     C
e|--------------------3-----------------|--------------------------------|
B|---------------5------6---------------|------5--6-5---------5--6-5-----|
G|------------5-----5-------------------|-------------5--------------5---|
D|------------3-------------------------|---------------5--------------5-|
A|--------------------------------------|---3---------------3------------|
E|--------------------------------------|--------------------------------|
Look at these passengers, if theres babies I'll survive

Chorus
       G       F    C
e|-----3----------------------------------------|
B|-----3----------------------------------------|
G|-----4-------2-2--------0---5---0-------------|
D|-----5-------3-3------2-----------------------|
A|-----5-------3-3--3---------------------------|
E|-----3-------1--------------------------------|
  It's hard to be a passenger for me

   F              G              C
e|------------------------------------------|
B|------------------------------------------|
G|-----2--------------4---------------------|
D|--------3--------------5--------Play fill-|
A|---3--------------5-----------------------|
E|-1--------------3-------------------------|
    You know I'm always looking down


Verse
         C
e|------------------------------------------------|
B|-------5----------------------------------------|
G|-------5---repeat muted till next F ------------|
D|-------5----------------------------------------|
A|-------3----------------------------------------|
E|------------------------------------------------|
I will compose this note, in case I don't come home

           F                                   C
e|--------------|----------------------------|--------------------|
B|---------1----|----------------------------|-----5--6-5---------|
G|---------2----|-------(8)b9\\\\\-----------|------------5---5---|
D|---------3----|------------^-grad. release-|--------------5-5---|
A|---------3----|--------------and depress w/|-3--------------3---|
E|---------1----|--------------bar-----------|--------------------|
I'm thinking of you, before the plane goes down
        C
If I forgot to say, I love you every day
               F
Know I've been keeping track in my quiet way

Chorus (same as first)
It's hard to fly if you don't believe all the time
I know I sometimes let you down
It's hard to see something that is so close to me

Post-Chorus   *=PM
e|------------------------------------------------------------------------|
B|---------------5------1------3------5---------5---5---------5---5-------|
G|-----------*-*-5------2------4--*-*-5---------------5-------------5-----|
D|-----------5-5-5--*-*-3--*-*-5--5-5-5-----------5-----5-------5-----5---|
A|-----------3-3----3-3-3--5-5-5--2-2---------3------------3--------------|
E|------------------1-1----3-3-3------------------------------------------|
    But I'll  see    you    in     my dreams

Solo
                                              Guitar 2 plays |Guitar 1 plays
                                         F         this bit: | this:
e|-----------------------------------|--------------|--------|---8---------|
B|-----------------------------------|---------5----|---5----|-----8-------|
G|---------------2-4----5--4-2-------|---5-5-----5--|-----5--|-------7-5---|
D|--2--3-2-3-5------------------5-5--|---3---3------|--------|-------------|
A|-----------------------------------|--------------|--------|-------------|
E|-----------------------------------|--------------|--------|-------------|

e|----------------------------------------------------|
B|--3-------------5----------1-----------3------------|
G|--4-------------5----------2-----2-----4-----4------|
D|--5-------------5----------3---3-------5---5--------|
A|--5-------------3----------3-3---------5-5----------|
E|--3------------------------1-----------3------------|
     I'm feeling turbulence, no one else sees


Post-Chorus - 2x

Ending
e|-----------------------|
B|----5--6-5------5~-----|
G|-----------5----5~-----|
D|-5-----------5--5~-----|
A|-3--------------3~-----|
E|-----------------------|



Without hope, man is but an animal
Tap to rate this tab
# A B C D E F G H I J K L M N O P Q R S T U V W X Y Z