Song name
# A B C D E F G H I J K L M N O P Q R S T U V W X Y Z

Jets To Brazil - Milk And Apples tab

Song:   Milk And Apples
Artist: Jets to Brazil
Album:  Four Cornered Nights

Tabbed by: Dimitri Apostal
Email:  japostal@gmail.com

Standard Tuning

Comment or PM me any corrections you think you might find

This song use staccato. This is where you play the note and cut it short by
muting the strings with your right hand, almost like a tap but not quite.

Intro:

Guitar 1-
E]----------------------------------------------|   X3
B]----------------------------------------------|
G]----------------------------------------------|
D]----------------------------------------------|
A]--0-0-7-0-9-0-10-0----------------------------|
E]----------------------------------------------|

Guitar 2- 0:02
E]----------------------------------------------|
B]----------------------------------------------|
G]--------------------x-x-x-x-------------------|
D]--------------------x-x-x-x-------------------|
A]--------------------x-x-x-x-------------------|
E]----------------------------------------------|


Guitar 1- 0:12
E]----------------------------------------------|
B]----------------------------------------------|
G]--0-0-0-2-2-2---------------------------------|
D]----------------------------------------------|
A]----------------------------------------------|
E]----------------------------------------------|


Guitar 1-
E]----------------------------------------------|   X3
B]----------------------------------------------|
G]----------------------------------------------|
D]----------------------------------------------|
A]--0-0-7-0-9-0-10-0----------------------------|
E]----------------------------------------------|


Guitar 1- 0:19
E]----------------------------------------------|
B]----------------------------------------------|
G]---0-0-0-2-2-2--------------------------------|
D]----------------------------------------------|
A]----------------------------------------------|
E]----------------------------------------------|

Verse-
Guitar 1- Throughout
E]----------------------------------------------|
B]-----------3---3--3-3-3-3---------------------|
G]---2---2---2---2--2-2-2-2-0-0-----------------|
D]---2---2---0---0--0-0-0-0-0-0-----------------|
A]---0---0--------------------------------------|
E]----------------------------------------------|
    *    *   *  *
  Now shes milk and shes apples
(goes along with lyrics like that)

Chorus- (crashing the car just to make a connection...)

Guitar 2-
E]--------------------------------------------------------------|
B]--------------------------3-3-3-3-3-3-3-3-3-3-3-3-------------|
G]--2-2-2-2-2-2-2-2-2-2-2-2-2-3-3-3-3-3-3-3-3-3-3-3-0--Let Ring-|
D]--2-2-2-2-2-2-2-2-2-2-2-2-0-0-0-0-0-0-0-0-0-0-0-0-0-----------|
A]--0-0-0-0-0-0-0-0-0-0-0-0-------------------------------------|
E]--------------------------------------------------------------|
    crashing the car just to make a connection each week

Guitar 1- Comes in with this bit after the lyrics
E]----------------------------------------------|
B]-----------3---3--3-3-3-3---------------------|
G]---2---2---2---2--2-2-2-2-0-0-----------------|
D]---2---2---0---0--0-0-0-0-0-0-----------------|
A]---0---0--------------------------------------|
E]----------------------------------------------|
     *   *   *   *

Guitar 2-
E]--------------------------------------------------------------|
B]--------------------------3-3-3-3-3-3-3-3-3-3-3-3-------------|
G]--2-2-2-2-2-2-2-2-2-2-2-2-2-3-3-3-3-3-3-3-3-3-3-3-0--Let Ring-|
D]--2-2-2-2-2-2-2-2-2-2-2-2-0-0-0-0-0-0-0-0-0-0-0-0-0-----------|
A]--0-0-0-0-0-0-0-0-0-0-0-0-------------------------------------|
E]--------------------------------------------------------------|
    Greasing the palm of the grease monkey give it discreet

Guitar 1- Comes in with this bit again after the lyrics
E]----------------------------------------------|
B]-----------3---3--3-3-3-3---------------------|
G]---2---2---2---2--2-2-2-2-0-0-----------------|
D]---2---2---0---0--0-0-0-0-0-0-----------------|
A]---0---0--------------------------------------|
E]----------------------------------------------|
     *   *   *   *

Bridge-
Guitar 1-
E]----------------------------------------------|  X2
B]-------3------x-x-x---------------------------|
G]---2---2---0--x-x-x---------------------------|
D]---2---0---0--x-x-x---------------------------|
A]---0------------------------------------------|
E]----------------------------------------------|
     *   *   *

Guitar 1-
E]----------------------------------------------|
B]-------3------x-x-x---------------------------|
G]---2---2---0--x-x-x--0-0-0--------------------|
D]---2---0---0--x-x-x--0-0-0--------------------|
A]---0------------------------------------------|
E]----------------------------------------------|
     *  *    *

Guitar 1-
E]----------------------------------------------|
B]-----------3---3--3-3-3-3---------------------|
G]---2---2---2---2--2-2-2-2-0-0-----------------|
D]---2---2---0---0--0-0-0-0-0-0-----------------|
A]---0---0--------------------------------------|
E]----------------------------------------------|
    *    *   *   *

Guitar 1-
E]----------------------------------------------|
B]-----------3----------------------------------|
G]---2---2---2----------------------------------|
D]---2---2---0---0------------------------------|
A]---0---0---------3----------------------------|
E]----------------------------------------------|
E]----------------------------------------------|
     *   *   *

Intro
Verse
Chorus
Verse
Chorus
Bridge
Verse
Chorus
Outro

--------------------------------------------------
Lyrics (set up so every line is the rift of the labeled part)

Verse:

Now she's milk and she's apples
You're scotch and segregation
Lips like molasses
You're smiling saccharine sidewalks

Chorus:

Crashing the car just to make a connection each week
Greasing the palm of the grease monkey keep it discreet


Verse:

While she types and she answers
You pay for information
Wonder what are the chances
Just pray there's conversation

Chorus:

Taking your faith past her desk on a mid day drive
Radio filling aborting the mission drive by

Bridge:

You're in the bathroom playing dead
I just know numbers now I'm feeling
What am I feeling what am I feeling
I can't cut through to you

Verse:

Caught yourself while undressing
Nude in the cold reflection
Hands probe assessing
Slow pills to change the painting

Chrous:

Running the ship over rocks as the sirens sing storms
Taking the water to heart as you make for the shore

Outro:

She's milk and apples *she's milk and apples*
And I'm on nine *Nine*
She's milk and apples *she's milk and apples*
And I'm on nine, nine

| *  Staccato
| /  slide up
| \  slide down
| h  hammer-on
| p  pull-off
| ~  vibrato
| +  harmonic
| x  Mute note
===========================================================================
Tap to rate this tab
# A B C D E F G H I J K L M N O P Q R S T U V W X Y Z