Song name
# A B C D E F G H I J K L M N O P Q R S T U V W X Y Z

Jetta - Feels Like Coming Home tab

Jetta - Feels Like Coming Home

Standard tuning

Chords used:
Am: x02210
F:  133211
C:  x32010
Em: 022000
G:  320003
G1: 320033
Dm: xx0231


The chord progressions (Intro, Verse + Chorus): 

Am   |F    |C    |Em   |
Am   |F    |C    |G1 G |


The main riff begins around 0:35:

Either
(Electric)
Am          F                    C          Em    Am
All these streets look different, like I'm born again
e|-----------15----------15--------------------15----------15------------|
B|-------13----------13----------13--------13----------13----------13----|
G|---14----------14----------14------------------------------------------|
D|------------------------------------15-----------15----------15--------|
A|-----------------------------------------------------------------------|
E|-----------------------------------------------------------------------|
                                                                           
|-----------12----------12------------------------------12---------------| 
|-------13----------13----------13------13--15------13----------13-------|
|---12----------12----------12------12----------12----------12-----------|x2
|------------------------------------------------------------------------|
|------------------------------------------------------------------------|
|------------------------------------------------------------------------|

OR
(Acoustic Guitar)
e|-----------3----------3--------------------3----------3----------------|
B|-------1----------1----------1---------1-----------1---------1---------|
G|---2----------2----------2---------------------------------------------|
D|----------------------------------3-----------3----------3-------------|
A|-----------------------------------------------------------------------|
E|-----------------------------------------------------------------------|
                                                                           
|-----------0----------0------------------------------0------------------| 
|-------1----------1----------1--------1--3-------1----------1-----------|
|---0----------0----------0--------1----------0----------0---------------|x2
|------------------------------------------------------------------------|
|------------------------------------------------------------------------|
|------------------------------------------------------------------------|




Intro
(Piano part)
e|-----------------------------------------------------------------------|
B|---5--------5--------5--------5--------6-------6------6------6---------|
G|---5--------5--------5--------5--------5-------5------5------5---------|
D|---7---------------------7-------7-----7------------------7-----7------|
A|-----------------------------------------------------------------------|
E|-----------------------------------------------------------------------|
                                                                           
|-----------------------------------------8------8-----8----7------------| 
|---5--------5--------5--------5----------8------8-----8-------8---------|
|---5--------5--------5--------5----------9------------9-----------------|
|---5---------------------5---------5------------------------------------|
|------------------------------------------------------------------------|
|------------------------------------------------------------------------|

Am   |F    |C    |Em   |
Am   |F    |C    |G1 G |

Verse 1

Am       
Running through the black night
   F
I'm sure I had a green light
C           Em
Car ran over I thought that I would die

Am                   F
Then from the x-ray, back to the rat race
  C                Em             
I want to win this, and now that I'm alive

Am          F                    C          Em    
All these streets look different, like I'm born again


Chorus

Am           F                 C  
There in the dark, down in the valley
          G1  G     Am
Under the motel neon sign
Am        F               C
Room 105, the back of the alley
                  G1         G
You're wearing my coat while sleeping
      Am          F         C        
And it feels like I've come home


Verse 2

Am                         F                                
It's hard for the dreamers and the cities never sleeping
     C                  Em                                                  
But were gonna make it, although we don't know how
Am                     F
I pay a high price for the joy of the free ride
C                 C(hold)
Cause I got you, and now that's all that counts


Chorus

Am           F                 C  
There in the dark, down in the valley
          G1  G      Am
Under the motel neon sign
Am        F               C
Room 105, the back of the alley
                  G1         G
You're wearing my coat while sleeping
      Am          F         C        
And it feels like I've come home
      Am         F          C        G
And it feels like I've come home, oh oh
 (Soft) Am          F        C       
Yeah it feels like I've come home, oh oh


Bridge

Am 
This I know
               F                   C
Right from the start, like its the first time
                 G1            F                
It finally feels like coming home

(Loud)

F             
oh oh oh oh ohh 
Am       C    Am x2
oh oh oh oh ohh      


(Soft)

F   |Am  

Chorus

Am           F                 C  
There in the dark, down in the valley
          G1  G      Am
Under the motel neon sign
Am        F               C
Room 105, the back of the alley
                  G1         G
You're wearing my coat while sleeping
(Loud)
    Am          F         C      G1  
And it feels like I've come home
G       Am          F        C    G1 G       
Yeah it feels like I've come home, oh oh


Outro

       Am 
This I know
               F                   C
Right from the start, like it's the first time
              G1   G
It finally feels like

(soft) 
  Am7 Am  Em  F        C       G1 G (Fade out)
It feels like I've come home

Am   |F    |C    


Enjoy!
Tap to rate this tab
 
# A B C D E F G H I J K L M N O P Q R S T U V W X Y Z