Song name
# A B C D E F G H I J K L M N O P Q R S T U V W X Y Z

Jeux Interdits - Spanische Romanze tab

Hey Guys!
This is my first tab!Hope you enjoi!



 9/8   Em
||--7-----7-----7-----|-7-----5-----3-----|-3-----2-----0-----|-0-----3-----7-----|
||o---0-----0-----0---|---0-----0-----0---|---0-----0-----0---|---0-----0-----0---|
||------0-----0-----0-|-----0-----0-----0-|-----0-----0-----0-|-----0-----0-----0-|
||--------------------|-------------------|-------------------|-------------------|
||o-------------------|-------------------|-------------------|-------------------|
||--0-----------------|-0-----------------|-0-----------------|-0-----------------|

                                              Am
|-12-----12-----12----|-12----10----8-----|-8-----7-----5-----|-5-----7-----8-----|
|----0------0------0--|----0-----0----0---|---5-----5-----5---|---5-----5-----5---|
|------0------0------0|------0-----0----0-|-----5-----5-----5-|-----5-----5-----5-|
|---------------------|-------------------|-------------------|-------------------|
|---------------------|-------------------|(0)----------------|(0)----------------|
|--0------------------|--0----------------|-5-----------------|-5-----------------|

  B                                         Em   
|-7-----8-----7-----|-11-----8-----7------|-7-----5-----3-----|-3-----2-----0-----|
|---7-----7-----7---|----7-----7-----7----|---0-----0-----0---|---0-----0-----0---|
|-----8-----8-----8-|------8-----8-----8--|-----0-----0-----0-|-----0-----0-----0-|
|-------------------|---------------------|-------------------|-------------------|
|-------------------|---------------------|-------------------|-2-----------------|
|-7-----------------|--7------------------|-0-----------------|-------------------|

  D                    B7                  Em
|-2-----2-----2-----|-2-----3-----2-----|-0-----0-----0-----|-0-----||
|---3-----3-----3---|---0-----0-----0---|---0-----0-----0---|------o||
|-----2-----2-----2-|-----2-----2-----2-|-----0-----0-----0-|-------||
|-0-----------------|-1-----------------|-2-----------------|-------||
|-------------------|(2)----------------|-------2-----------|------o||
|-------------------|-------------------|-------------3-----|-0-----||
Tap to rate this tab
 
# A B C D E F G H I J K L M N O P Q R S T U V W X Y Z