Guitaretab - guitar tabs
Song name
# A B C D E F G H I J K L M N O P Q R S T U V W X Y Z

Jewel - Sweet Dreams tab

INTRO: 
e|-------------------------------| with e|--------| <<(another guitar)
B|-------------------------------|      B|--------|
G|-------------------------------|      G|-0-2-3--|
D|-5-4-3-2-/-5-4-3---3---3-------|      D|--------|
A|-----------------3---3---3-----|      A|--------|
E|-------------------------------|      E|--------|
VERSE 1:
The shadows are waltzing Silver threads lined with two
The moon beams are calling twinkling stars seem to shine
Like a dream I am falling into just for you
e|-------------------------------| e|----------------------|
B|-------------------------------| B|----------------------|
G|-------------------------------| G|----------------------|
D|-1---1---1---0---0-------------| D|-5-4-3---3---3--------|
A|---1---1---1---0---0-----------| A|-------3---3---3------|
E|-------------------------------| E|----------------------|
VERSE 2: [^Play same as verse 1^]
Behind your eyes Each breath that you breathe is a
Are endless blue=2 0skies brush stroke that leads me to you
You travel places, I want to come, too
CHORUS:
So, sleep 
Fall into nightís indigo hue
Believe me itís true
Thereís nothing that I would not do For my dream is sweet dreams for you
e|-------------------------------| e|----------------------|
B|-------------------------------| B|----------------------|
G|-3-----------------------------| G|----------------------|
D|---3-0---1---3-----------------| x2 D|-5-4---3---1-------|
A|-------0---1---3---------------| A|-----3---1---1--------|
E|-------------------------------| E|----------------------|
VERSE 3:
It seems far away To this heart like a dove from above
But there once was a day A miracle of your love found me
It was grey in a world without you
e|-------------------------------| e|----------------------|
B|-------------------------------| B|----------------------|
G|-------------------------- -----| G|---------------------|
D|-1---1---1---0---0-------------| D|-5-4-3---3---3--------|
A|---1---1---1---0---0-----------| A|-------3---3---3------|
E|-------------------------------| E|----------------------|
CHORUS:
So, sleep 
Fall into nightís indigo hue
Believe me itís true
Thereís nothing that I would not do For my dream is sweet dreams for you
e|-------------------------------| e|----------------------|
B|-------------------------------| B|----------------------|
G|-3-----------------------------| G|----------------------|
D|---3-0---1---3-----------------| x2 D|-5-4---3-5---- ----|
A|-------0---1---3---------------| A|-----3----------------|
E|-------------------------------| E|----------------------|
BRIDGE:
So hush-a-bye
And donít you cry
Sweetly dreaming, little baby
e|------------------------------------| 
B|------------------------------------| 
G|------------------------------------| 
D|-4-3-2-/-5-4-3-2-/-5-4-3---3---3----| 
A|-------------------------3---3---3--| 
E|------------------------------------| 
CHORUS:
Yes, sleep
Lose yourself in nightís indigo hue
Believe me itís true For my dream is sweet dreams
Thereís nothing that I would not do Yes, my dream is sweet dreams for you
e|-------------------------------| e|------------------------|
B|-------------------------------| B|------------------------|
G|-3-----------------------------| G|---------------------3--|
D|---3-0---1---3-----------------| x2 D|-5-4---3-5-4---3---1-|
A|-------0---1---3---------------| A|-----3-------3---1------|
E|-------------------------------| E|------------------------|
[ Tab from: http://www.guitaretab.com/j/jewel/191254.html ]
Related for Sweet Dreams tab