Song name
# A B C D E F G H I J K L M N O P Q R S T U V W X Y Z

Jewel - Raven tab

My guitarteacher gave me this song to learn, but he hadn't made a tab for 
it yet. I decided to look for a tab myself, but then found myself not 
being able to find one! So what I did, I found myself a video on YouTube 
of Jewel playing this song, and with the help of that managed to 
sorta figure what chords she was playing. With a bit help from my teacher 
we together figured out the song, and we've decided we want to put it on 
the Internet as a first!
We hope we've pleased more people with it unable to find a tab for it, 
enjoy playing it!

Chords:
		E A D G B e
		-----------
Dsus2		- - 0 2 3 0
Em		0 2 2 0 0 0
A		- 0 2 2 2 0
A7		- 0 2 0 2 0
G		3 2 0 0 3 3
Am		- 0 2 2 1 0
Am7		- 0 2 0 1 0

Capo in 2

Intro
   Dsus2                         Em
-|---------0-------------0-----|---------0-------------0-----|
-|-----3-------3-----3-------0-|-----0-------0-----0-------0-|
-|---2-------2-----2-------2---|---0-------0-----0-------0---|
-|-0-------------0-------------|-----------------------------|
-|-------0-------------0-------|-------2-------------2-------|
-|-----------------------------|-0-------------0-------------|

   A              A7             Dsus2
-|---------0-------------0-----|---------0-------------0-----|
-|-----2-------2-----2-------2-|-----3-------3-----3-------3-|
-|---2-------2-----0-------0---|---2-------2-----2-------2---|
-|-------2-------------2-------|-0-------------0-------------|
-|-0-------------0-------------|-------0-------------0-------|
-|-----------------------------|-----------------------------|

Verse 1
   Dsus2                         Em
-|---------0-------------0-----|---------0-------------0-----|
-|-----3-------3-----3-------3-|-----0-------0-----0-------0-|
-|---2-------2-----2-------2---|---0-------0-----0-------0---|
-|-0-------------0-------------|-----------------------------|
-|-------0-------------0-------|-------2-------------2-------|
-|-----------------------------|-0-------------0-------------|

   G                             Dsus2
-|---------3-------------3-----|---------0-------------0-----|
-|-----3-------3-----3-------0-|-----3-------3-----3-------3-|
-|---0-------0-----0-------0---|---2-------2-----2-------2---|
-|-----------------------------|-0-------------0-------------|
-|-------2-------------2-------|-------0-------------0-------|
-|-3-------------3-------------|-----------------------------|

   Dsus2                         Em
-|---------0-------------0-----|---------0-------------0-----|
-|-----3-------3-----3-------3-|-----0-------0-----0-------0-|
-|---2-------2-----2-------2---|---0-------0-----0-------0---|
-|-0-------------0-------------|-----------------------------|
-|-------0-------------0-------|-------2-------------2-------|
-|-----------------------------|-0-------------0-------------|

   A              A7             Dsus2
-|---------0-------------0-----|---------0-------------0-----|
-|-----2-------2-----2-------2-|-----3-------3-----3-------3-|
-|---2-------2-----0-------0---|---2-------2-----2-------2---|
-|-------2-------------2-------|-0-------------0-------------|
-|-0-------------0-------------|-------0-------------0-------|
-|-----------------------------|-----------------------------|2x

Chorus
   Am            Am7             A             A7
-|---------0-------------0-----|---------0-------------0-----|
-|-----1-------1-----1-------1-|-----2-------2-----2-------2-|
-|---2-------2-----0-------0---|---2-------2-----0-------0---|
-|-------2-------------2-------|-------2-------------2-------|
-|-0-------------0-------------|-0-------------0-------------|
-|-----------------------------|-----------------------------|

   G                             Dsus2
-|---------3-------------3-----|---------0-------------0-----|
-|-----3-------3-----3-------3-|-----3-------3-----3-------3-|
-|---0-------0-----0-------0---|---2-------2-----2-------2---|
-|-----------------------------|-0-------------0-------------|
-|-------2-------------2-------|-------0-------------0-------|
-|-3-------------3-------------|-----------------------------|2x

Verse 2
Repeat verse 1.

Chorus
Repeat chorus.

Outro
   Am            Am7             Em
-|---------0-------------0-----|---------0-------------0-----|
-|-----1-------1-----1-------1-|-----0-------0-----0-------0-|
-|---2-------2-----0-------0---|---0-------0-----0-------0---|
-|-------2-------------2-------|-----------------------------|
-|-0-------------0-------------|-------2-------------2-------|
-|-----------------------------|-0-------------0-------------|
Tap to rate this tab
# A B C D E F G H I J K L M N O P Q R S T U V W X Y Z