Song name
# A B C D E F G H I J K L M N O P Q R S T U V W X Y Z

Jewel - Bad As It Gets tab

INTRO/VERSE PATTERN:

   A    Bm     G              A      Bm    G
e------------------------------------------0-----------|
B--2-----3-----0--------------2------3---------3---2-0-|
G-----2-----0--------0-----0-----2------0--------------|
D-----------------------0------------------------------|
A--0-----2-------0h2----------0------2-----------2-----|
E--------------3---------------------------3-----------|

   A     Bm    G              Bm
e---------------------------------------------------------|
B--2-----3-----0----------------------3-----------------3-|
G-----2-----0--------0-----0-----0-------0-----------0----|
D-----------------------0-----------4-------4-----4-------|
A--0-----2-------0h2----------2----------------2----------|
E--------------3------------------------------------------|

VERSE:

   A    Bm     G              A      Bm    G
e------------------------------------------0-----------|
B--2-----3-----0--------------2------3---------3---2-0-|
G-----2-----0--------0-----0-----2------0--------------|
D-----------------------0------------------------------|
A--0-----2-------0h2----------0------2-----------2-----|
E--------------3---------------------------3-----------|
I close my eyes             So I can't see you leaving


   A     Bm    G              Bm
e---------------------------------------------------------|
B--2-----3-----0----------------------3-----------------3-|
G-----2-----0--------0-----0-----0-------0-----------0----|
D-----------------------0-----------4-------4-----4-------|
A--0-----2-------0h2----------2----------------2----------|
E--------------3------------------------------------------|
I still hear              You walking out

   A    Bm     G              A      Bm    G
e------------------------------------------0-----------|
B--2-----3-----0--------------2------3---------3---2-0-|
G-----2-----0--------0-----0-----2------0--------------|
D-----------------------0------------------------------|
A--0-----2-------0h2----------0------2-----------2-----|
E--------------3---------------------------3-----------|
I can't move                 I feel like I'm not breathing

   A     Bm    G              Bm
e---------------------------------------------------------|
B--2-----3-----0----------------------3-----------------3-|
G-----2-----0--------0-----0-----0-------0-----------0----|
D-----------------------0-----------4-------4-----4-------|
A--0-----2-------0h2----------2----------------2----------|
E--------------3------------------------------------------|
How do I live                  without you now


           D         G
Is this as bad as it gets

        D          G
Is this hard as it seems

CHORUS:

   Bm
Is this the way feels with a dagger through your heart

            A
When you're falling to your knees ripped and torn apart

    Bm                                       A
How long am I gonna cry feel like I'm gonna die

F#m           Bm
Trying to forget

         G  A
Is this baaaaaad as it

   A    Bm     G              A      Bm    G
e------------------------------------------0-----------|
B--2-----3-----0--------------2------3---------3---2-0-|
G-----2-----0--------0-----0-----2------0--------------|
D-----------------------0------------------------------|
A--0-----2-------0h2----------0------2-----------2-----|
E--------------3---------------------------3-----------|
gets

Verse (same pattern as first)

A     Bm    G    A   Bm      G
Sun's going down How will we ever face our

A  Bm G   Bm
empty bed Turn out the lights

   A     Bm  G       A    Bm     G
It hurts too much To know you're never coming

A    Bm  G    Bm
home again You said goodbye


           D         G
Is this as bad as it gets
         D         G
Is this hard as it seems

CHORUS

   Bm
Is this the way feels with a dagger through your heart

            A
When you're falling to your knees ripped and torn apart

    Bm                                       A
How long am I gonna cry feel like I'm gonna die

F#m           Bm
Trying to forget

         G  A
Is this baaaaaad as it

G
Gets Tonight tell me I've

         A
Seen the worst of this jagged knife

Bm
Deep inside my broken heart

           A
He'll only leave a scar


           D         G
Is this as bad as it gets

         D         G
Is this hard as it seems


   Bm
Is this the way feels with a dagger through your heart

            A
When you're falling to your knees ripped and torn apart

    Bm                                       A
How long am I gonna cry feel like I'm gonna die

F#m           Bm
Trying to forget

         G  A
Is this baaaaaad as it

   A    Bm     G              A      Bm    G
e------------------------------------------0----------|
B--2-----3-----0--------------2------3---------3--2-3-|
G-----2-----0--------0-----0-----2------0-------------|
D-----------------------0-----------------------------|
A--0-----2-------0h2----------0------2-----------2----|
E--------------3---------------------------3----------|
gets
Tap to rate this tab
# A B C D E F G H I J K L M N O P Q R S T U V W X Y Z