Song name
# A B C D E F G H I J K L M N O P Q R S T U V W X Y Z

Jewel - You Were Meant For Me tab

Hi there!  This is Meg42's version (#3) and I just added 
the chords because it makes it SO much easier if you're a beginner,
like me, just trying to learn how to pick (or is it pluck) out
songs.  SO, go rate her tab:)  Have fun!!

Cadd9 [032030]
   G6 [020030]
    C [032010]
   Em [022000]
Dsus4 [000233]
   Am [002210]
   Bm [224432]
  ???  - Just play what it shows, it's only in here a few times


Tuning: Half-Step Down (to match recorded version)  
 

Intro: Play 3 times

       Cadd9               G6                 C                Em
e|-------------0---|-------------0---|-------------0---|-------------0---|
b|---------3-----3-|---------3-----3-|---------1-----1-|---------0-----0-|
g|---0-------------|---0-------------|---0-------------|---0-------------| x3
d|-----2-----------|-----0-----------|-----2-----------|-----2-----------|
a|-3---------------|-2---------------|-3---------------|-----------------|
E|-----------------|-----------------|-----------------|-0---------------|


       Cadd9               G6                 C                Em
e|-------------0---|-------------0---|-------------0---|-------------0---|
b|---------3-----3-|---------3-----3-|---------1-----1-|---------0-----0-|
g|---0-------------|---0-------------|---0-------------|---0-------------|
d|-----2-----------|-----0-----------|-----2-----------|-----2-----------|
a|-3---------------|-2---------------|-3---------------|-----------------|
E|-----------------|-----------------|-----------------|-0---------------|
  I hear the clock, at six a.m I feel so far from where I've been

       Cadd9               G6                 C               Dsus4
e|-------------0---|-------------0---|-------------0---|---------3-------|
b|---------3-----3-|---------3-----3-|---------1-----1-|---3---------3---|
g|---0-------------|---0-------------|---0-------------|-----2---------2-|
d|-----2-----------|-----0-----------|-----2-----------|-0---------------|
a|-3---------------|-2---------------|-3---------------|-----------------|
E|-----------------|-----------------|-----------------|-----------------|
  I've got my eggs I've got my pancakes too, I've got my maple syrup, everything     but you

       Cadd9               G6                 C                 Em
e|-------------0---|-------------0---|-------------0---|-------------0---|
b|---------3-----3-|---------3-----3-|---------1-----1-|---------0-----0-|
g|---0-------------|---0-------------|---0-------------|---0-------------|
d|-----2-----------|-----0-----------|-----2-----------|-----2-----------|
a|-3---------------|-2---------------|-3---------------|-----------------|
E|-----------------|-----------------|-----------------|-0---------------|
  I break the yolks and make a smiley face, I kinda like in my brand new place

       Cadd9              G6                  C                Em
e|-------------0---|-------------0---|-------------0---|-------------0---|
b|---------3-----3-|---------3-----3-|---------1-----1-|---------0-----0-|
g|---0-------------|---0-------------|---0-------------|---0-------------|
d|-----2-----------|-----0-----------|-----2-----------|-----2-----------|
a|-3---------------|-2---------------|-3---------------|-----------------|
E|-----------------|-----------------|-----------------|-0---------------|
  Wipe the spots off of the mirror, dont leave my keys in the door, I never put wet 
towels on the floor anymore

         C                Dsus4            ?     ?             Em
e|-------------0---|---------3-------|-----------------|-------------0---|
b|---------1-----1-|---3---------3---|-------0-------0-|---------0-----0-|
g|---0-------------|-----2---------2-|---0-------0-----|---0-------------|
d|-----2-----------|-0---------------|-----0-------0---|-----2-----------|
a|-3---------------|-----------------|-----------------|-----------------|
E|-----------------|-----------------|-3-------2-------|-0---------------|
  Cuz dreams last so long, even after your gone

         C                Dsus4             ??                 Em
e|-------------0---|---------3-------|-----------------|-------------0---|
b|---------1-----1-|---3---------3---|-------0-------0-|---------0-----0-|
g|---0-------------|-----2---------2-|---0-------0-----|---0-------------|
d|-----2-----------|-0---------------|-----0-------0---|-----2-----------|
a|-3---------------|-----------------|-----------------|-----------------|
E|-----------------|-----------------|-3-------2-------|-0---------------|
  I know, that you love me and soon you will see

         C                Dsus4              Em                ??  
e|-------------0---|---------3-------|-------------0---|-------------7---|
b|---------1-----1-|---3---------3---|---------0-----0-|----------7----7-|
g|---0-------------|-----2---------2-|---0-------------|-------7---------|
d|-----2-----------|-0---------------|-----2-----------|----7------------|
a|-3---------------|-----------------|-----------------|-----------------|
E|-----------------|-----------------|-0---------------|-0---------------|
  You were meant for me, and I was meant for you

       Cadd9               G6                 C               Dsus4
e|-------------0---|-------------0---|-------------0---|---------3-------|
b|---------3-----3-|---------3-----3-|---------1-----1-|---3---------3---|
g|---0-------------|---0-------------|---0-------------|-----2---------2-|
d|-----2-----------|-----0-----------|-----2-----------|-0---------------|
a|-3---------------|-2---------------|-3---------------|-----------------|
E|-----------------|-----------------|-----------------|-----------------|
  I called my mama she was out for a walk, Consoled a cup of coffee, but it didnt  wanna talk

       Cadd9               G6                 C               Dsus4
e|-------------0---|-------------0---|-------------0---|---------3-------|
b|---------3-----3-|---------3-----3-|---------1-----1-|---3---------3---|
g|---0-------------|---0-------------|---0-------------|-----2---------2-|
d|-----2-----------|-----0-----------|-----2-----------|-0---------------|
a|-3---------------|-2---------------|-3---------------|-----------------|
E|-----------------|-----------------|-----------------|-----------------|
  So I picked up the paper it was more bad news, More hearts been broken, people been used.

       Cadd9               G6                 C                Em
e|-------------0---|-------------0---|-------------0---|-------------0---|
b|---------3-----3-|---------3-----3-|---------1-----1-|---------0-----0-|
g|---0-------------|---0-------------|---0-------------|---0-------------|
d|-----2-----------|-----0-----------|-----2-----------|-----2-----------|
a|-3---------------|-2---------------|-3---------------|-----------------|
E|-----------------|-----------------|-----------------|-0---------------|
  Put on my coat in the pouring rain, I saw a movie it just wasnt the same cuz

       Cadd9               G6                 C               Dsus4
e|-------------0---|-------------0---|-------------0---|---------3-------|
b|---------3-----3-|---------3-----3-|---------1-----1-|---3---------3---|
g|---0-------------|---0-------------|---0-------------|-----2---------2-|
d|-----2-----------|-----0-----------|-----2-----------|-0---------------|
a|-3---------------|-2---------------|-3---------------|-----------------|
E|-----------------|-----------------|-----------------|-----------------|
  It was happy, oh I was sad and it made me miss you, oh so bad

         C                Dsus4            ?     ?             Em      
e|-------------0---|---------3-------|-----------------|-------------0---|
b|---------1-----1-|---3---------3---|-------0-------0-|---------0-----0-|
g|---0-------------|-----2---------2-|---0-------0-----|---0-------------|
d|-----2-----------|-0---------------|-----0-------0---|-----2-----------|
a|-3---------------|-----------------|-----------------|-----------------|
E|-----------------|-----------------|-3-------2-------|-0---------------|
  Cuz dreams last so long, even after your gone

         C                Dsus4            ?     ?             Em
e|-------------0---|---------3-------|-----------------|-------------0---|
b|---------1-----1-|---3---------3---|-------0-------0-|---------0-----0-|
g|---0-------------|-----2---------2-|---0-------0-----|---0-------------|
d|-----2-----------|-0---------------|-----0-------0---|-----2-----------|
a|-3---------------|-----------------|-----------------|-----------------|
E|-----------------|-----------------|-3-------2-------|-0---------------|
  I know, that you love me and soon you will see

         C                Dsus4              Em                Em
e|-------------0---|---------3-------|-------------0---|---------0----0--|
b|---------1-----1-|---3---------3---|---------0-----0-|------------0----|
g|---0-------------|-----2---------2-|---0-------------|-----------------|
d|-----2-----------|-0---------------|-----2-----------|----2------------|
a|-3---------------|-----------------|-----------------|-----------------|
E|-----------------|-----------------|-0---------------|-0----0----------|
  You were meant for me, and I was meant for you

        Am                Dsus4             Bm              D       ?
e|-------------0---|---------3-------|-------------2---|-------2---------|
b|---------1-----1-|---3---------3---|---------3-----3-|---3-------------|
g|---2-------------|-----2---------2-|---4-------------|-----2-----0---0-|
d|-----2-----------|-0---------------|-----4-----------|-0---------------|
a|-0---------------|-----------------|-2---------------|---------3---2---|
E|-----------------|-----------------|-----------------|-----------------|
  So I go 'bout my business, I'm doing fine besides what would I say if I had 
you on the line
                     
        Am                Dsus4             Bm                 Em
e|-------------0---|---------3-------|-2---------------|-0---------------|
b|---------1-----1-|---3---------3---|-3---------------|-0---------------|
g|---2-------------|-----2---------2-|-4---------------|-0---------------|
d|-----2-----------|-0---------------|-4---------------|-2---------------|
a|-0---------------|-----------------|-2---------------|-2---------------|
E|-----------------|-----------------|-----------------|-0---------------|
  Same old story, not much to say... hearts are broken every day


Interlude thing- play 3 times!

       Cadd9               G6                 C                Em
e|-------------0---|-------------0---|-------------0---|-------------0---|
b|---------3-----3-|---------3-----3-|---------1-----1-|---------0-----0-|
g|---0-------------|---0-------------|---0-------------|---0-------------| x3
d|-----2-----------|-----0-----------|-----2-----------|-----2-----------|
a|-3---------------|-2---------------|-3---------------|-----------------|
E|-----------------|-----------------|-----------------|-0---------------|


       Cadd9               G6                 C                Em
e|-------------0---|-------------0---|-------------0---|-------------0---|
b|---------3-----3-|---------3-----3-|---------1-----1-|---------0-----0-|
g|---0-------------|---0-------------|---0-------------|---0-------------|
d|-----2-----------|-----0-----------|-----2-----------|-----2-----------|
a|-3---------------|-2---------------|-3---------------|-----------------|
E|-----------------|-----------------|-----------------|-0---------------|
  I brush my teeth I put the cap back on, I know ya hate it when I leave the lights on

       Cadd9               G6                 C               Dsus4
e|-------------0---|-------------0---|-------------0---|---------3-------|
b|---------3-----3-|---------3-----3-|---------1-----1-|---3---------3---|
g|---0-------------|---0-------------|---0-------------|-----2---------2-|
d|-----2-----------|-----0-----------|-----2-----------|-0---------------|
a|-3---------------|-2---------------|-3---------------|-----------------|
E|-----------------|-----------------|-----------------|-----------------|
  I pick a book up, and turn the sheets back down and theni take a deep breath and a good around

       Cadd9               G6                 C                Em
e|-------------0---|-------------0---|-------------0---|-------------0---|
b|---------3-----3-|---------3-----3-|---------1-----1-|---------0-----0-|
g|---0-------------|---0-------------|---0-------------|---0-------------|
d|-----2-----------|-----0-----------|-----2-----------|-----2-----------|
a|-3---------------|-2---------------|-3---------------|-----------------|
E|-----------------|-----------------|-----------------|-0---------------|
  Put on my pjs, and hop into bed. I'm half alive but I've been mostly dead

       Cadd9               G6                 C               Dsus4
e|-------------0---|-------------0---|-------------0---|---------3-------|
b|---------3-----3-|---------3-----3-|---------1-----1-|---3---------3---|
g|---0-------------|---0-------------|---0-------------|-----2---------2-|
d|-----2-----------|-----0-----------|-----2-----------|-0---------------|
a|-3---------------|-2---------------|-3---------------|-----------------|
E|-----------------|-----------------|-----------------|-----------------|
  I try to tell myself it'll be alright, I just shouldn't think any more tonight

         C                Dsus4            ?     ?             Em 
e|-------------0---|---------3-------|-----------------|-------------0---|
b|---------1-----1-|---3---------3---|-------0-------0-|---------0-----0-|
g|---0-------------|-----2---------2-|---0-------0-----|---0-------------|
d|-----2-----------|-0---------------|-----0-------0---|-----2-----------|
a|-3---------------|-----------------|-----------------|-----------------|
E|-----------------|-----------------|-3-------2-------|-0---------------|
  Cuz dreams last so long, even after your gone

         C                Dsus4            ?     ?             Em 
e|-------------0---|---------3-------|-----------------|-------------0---|
b|---------1-----1-|---3---------3---|-------0-------0-|---------0-----0-|
g|---0-------------|-----2---------2-|---0-------0-----|---0-------------|
d|-----2-----------|-0---------------|-----0-------0---|-----2-----------|
a|-3---------------|-----------------|-----------------|-----------------|
E|-----------------|-----------------|-3-------2-------|-0---------------|
  I know, that you love me and soon you will see

         C                Dsus4              Em                Em 
e|-------------0---|---------3-------|-------------0---|---------0----0--|
b|---------1-----1-|---3---------3---|---------0-----0-|------------0----|
g|---0-------------|-----2---------2-|---0-------------|-----------------|
d|-----2-----------|-0---------------|-----2-----------|----2------------|
a|-3---------------|-----------------|-----------------|-----------------|
E|-----------------|-----------------|-0---------------|-0----0----------|
  You were meant for me, and I was meant for you



Have fun!
Tap to rate this tab
 
# A B C D E F G H I J K L M N O P Q R S T U V W X Y Z