Song name
# A B C D E F G H I J K L M N O P Q R S T U V W X Y Z

Jfa - Skateboard tab

Help us improve GuitareTab! Take a short survey!
Intro:
e|------------------------------------------------------------------
B|------------------------------------------------------------------
G|------------------------------------------------------------------
D|------------------------------------------------------------------
A|-----44-----------------------------------------------------------
E|---------44-2222222-----------------------------------------------    (Play 4 times)

Verse:
e|------------------------------------------------------------------
B|------------------------------------------------------------------
G|-----66-----------------------------------------------------------
D|-----66--66--33--44-----------------------------------------------
A|-----44--66--33--44-----------------------------------------------
E|---------44--11--22-----------------------------------------------
(Play 4 times)

Chorus:
e|------------------------------------------------------------------
B|------------------------------------------------------------------
G|---------8888888------8888888--6666666----------------------------
D|-----66--8888888--66--8888888--6666666--4444444--6666666----------
A|-----66--6666666--66--6666666--4444444--4444444--6666666----------
E|-----44-----------44--------------------2222222--4444444----------
(Play once)


Order:
Intro
Verse
Chorus
Verse
Chorus(twice)
Intro
Chorus(twice)

End with: 
e|---
B|---
G|--6
D|--6   
A|--4 
E|---
(Let Ring)


Link to official site: http://home.earthlink.net/~brianjfa/index.html

Related for Skateboard tab