Guitaretab - guitar tabs
Song name
# A B C D E F G H I J K L M N O P Q R S T U V W X Y Z

Jfa - Jodie Fosters Army tab

-------------------------------------------------------------------------------
Jodie Foster's Army - JFA
We Know You Suck
-------------------------------------------------------------------------------
Tabbed by: axeslash
Email: holmzito@yahoo.com

Tuning: EADGBE

e|---------------------------------------------------------------------|
B|-x-x-14-x-14-x-x-x-x-11-x-11-x-x-x-x-14-x-14-x-x-x-x-11-x-11-x-x-x-x-|
G|-x-x-12-x-12-x-x-x-x--9-x--9-x-x-x-x-12-x-12-x-x-x-x--9-x--9-x-x-x-x-|
D|---------------------------------------------------------------------|
A|---------------------------------------------------------------------|
E|---------------------------------------------------------------------|

e|---------------------------------------------------|
B|-14-x-14-x-x-x-x-11-x-11-x-x-x-x-14-x-14-x-x-11----|
G|-12-x-12-x-x-x-x--9-x--9-x-x-x-x-12-x-12-x-x--9----|
D|---------------------------------------------------|
A|---------------------------------------------------|
E|---------------------------------------------------|

e|-----------------------------------------------------------------|
B|-----------------------------------------------------------------|
G|-9-9-9-9-9-9-9-9---------------------------------9-9-9-9-9-9-9-9-|
D|-7-7-7-7-7-7-7-7-9-9-9-9-9-9-9-9-7-7-7-7-7-7-7-7-7-7-7-7-7-7-7-7-|
A|-----------------7-7-7-7-7-7-7-7-5-5-5-5-5-5-5-5-----------------|
E|-----------------------------------------------------------------| x4

e|-----------------------------|     e|-------------------------------------------------|
B|-----------------------------|     B|-------------------------------------------------|
G|-------7--7--9-9-9-9-9-9-9-9-|     G|-12-12-12-12-12-12-12-12-12-12-12-12-12-12-12-12-|
D|-7--7--5--5--7-7-7-7-7-7-7-7-|     D|-10-10-10-10-10-10-10-10-10-10-10-10-10-10-10-10-|
A|-5--5------------------------|     A|-------------------------------------------------|
E|-----------------------------| x3  E|-------------------------------------------------|

e|-----------------------------|     e|-------------------------------------------------|
B|-----------------------------|     B|-------------------------------------------------|
G|-------7--7--9-9-9-9-9-9-9-9-|     G|-12-12-12-12-12-12-12-12-12-12-12-12-12-12-12-12-|
D|-7--7--5--5--7-7-7-7-7-7-7-7-|     D|-10-10-10-10-10-10-10-10-10-10-10-10-10-10-10-10-|
A|-5--5------------------------|     A|-------------------------------------------------|
E|-----------------------------| x3  E|-------------------------------------------------|
[ Tab from: http://www.guitaretab.com/j/jfa/92024.html ]
e|-----------------------------------------------------------------|
B|-----------------------------------------------------------------|
G|-9-9-9-9-9-9-9-9---------------------------------9-9-9-9-9-9-9-9-|
D|-7-7-7-7-7-7-7-7-9-9-9-9-9-9-9-9-7-7-7-7-7-7-7-7-7-7-7-7-7-7-7-7-|
A|-----------------7-7-7-7-7-7-7-7-5-5-5-5-5-5-5-5-----------------|
E|-----------------------------------------------------------------| x4

e|-----------------------------|     e|-------------------------------------------------|
B|-----------------------------|     B|-------------------------------------------------|
G|-------7--7--9-9-9-9-9-9-9-9-|     G|-12-12-12-12-12-12-12-12-12-12-12-12-12-12-12-12-|
D|-7--7--5--5--7-7-7-7-7-7-7-7-|     D|-10-10-10-10-10-10-10-10-10-10-10-10-10-10-10-10-|
A|-5--5------------------------|     A|-------------------------------------------------|
E|-----------------------------| x3  E|-------------------------------------------------|

e|-----------------------------|     e|-------------------------------------------|
B|-----------------------------|     B|-------x-x-14-x-14-x-x-x-x-11-x-11-x-x-x-x-|
G|-------7--7--9-9-9-9-9-9-9-9-|     G|-12----x-x-12-x-12-x-x-x-x--9-x--9-x-x-x-x-|
D|-7--7--5--5--7-7-7-7-7-7-7-7-|     D|-10----------------------------------------|
A|-5--5------------------------|     A|-------------------------------------------|
E|-----------------------------| x3  E|-------------------------------------------|

e|--------------------------------------------------------------------------------|
B|-14-x-14-x-x-x-x-11-x-11-x-x-x-x-14-x-14-x-x-x-x-11-x-11-x-x-x-x-14-x-14-x-11^--|
G|-12-x-12-x-x-x-x--9-x--9-x-x-x-x-12-x-12-x-x-x-x--9-x--9-x-x-x-x-12-x-12-x--9^--|
D|--------------------------------------------------------------------------------|
A|--------------------------------------------------------------------------------|
E|--------------------------------------------------------------------------------|

e|-----------------------------|     e|-------------------------------------------------|
B|-----------------------------|     B|-------------------------------------------------|
G|-------7--7--9-9-9-9-9-9-9-9-|     G|-12----------------------------------------------|
D|-7--7--5--5--7-7-7-7-7-7-7-7-|     D|-10----------------------------------------------|
A|-5--5------------------------|     A|-------------------------------------------------|
E|-----------------------------| x3  E|-------------------------------------------------|

| ^  note bend
| /  slide up
| \  slide down
| h  hammer-on
| p  pull-off
| ~  vibrato
| +  harmonic
| x  Mute note
===============================================================================
Related for Jodie Fosters Army tab