Song name
# A B C D E F G H I J K L M N O P Q R S T U V W X Y Z

Jfk - Janies Addiction tab

Janies Addiction-Intro 
Janies Addiction-written by Lach/Parsons

Intro and verses:

e----------------------------------------------------------
b---------6---------------------------6--------------------
g----6/9------9/7----5-----------6/9-----9/7---5-----------
d------------------------7-------------------------7-------
a----------------------------------------------------------
e----------------------------------------------------------

e----------------------------------------------------------
b----------------------------------------------------------
g--------5h7--5--------5--5----------5----------5----------
d-----7----------7--7---------5---7------5---7-------------
a----------------------------------------------------------
e----------------------------------------------------------
Tap to rate this tab
 
# A B C D E F G H I J K L M N O P Q R S T U V W X Y Z