Song name
# A B C D E F G H I J K L M N O P Q R S T U V W X Y Z

Jhake Vargas - Ngiti tab

Ngiti - by Jhake Vargas

Tabs by:Dan Nieva

"Adlib part"

Intro
                "1st Part"
               
E----------------------|-----------------|
A----------------------|-----------------|
D------------2-2/3-----|-----------------|
G----------O-----------|-----------------|
B-1h3----1---------3-1-|-1h3-----------1-|
e-----OO---------------|-----O-3-3h5-O---|

                "2nd Part"

E--------------------------------------|----------------------|
A--------------------------------------|----------------------|
D--------------------------------------|----------------------|
G-------------9---7-10-7h10-10s11-10-7-|-5-7-7s9--------------|
B-------8---8---8----------------------|---------8-8s10-8-5-8-|
e-7-8-7---7----------------------------|----------------------|
Tap to rate this tab
 
# A B C D E F G H I J K L M N O P Q R S T U V W X Y Z