Song name
# A B C D E F G H I J K L M N O P Q R S T U V W X Y Z

Jhake Vargas - Ngiti tab

Title: Ngiti
Artist: Jhake Vargas
Tabbed by: Mark Larry S. Saquing

Intro:

Guitar 1: C-Dm(3x) C-F
   C   F   G   Dm
e|-0---0---3---1-|
B|-1---1---3---3-|
G|-0---2---0---2-|
D|-2---3---0-----|
A|-3---x---2-----|
E|-x---x---3-----|
 
Guitar 2:
       C            Dm          C                 Dm 
e|-------------------------------------------------|
B|---------------------------------8-8/10-8--5-----|
G|-5h7-9-9-5----------7-5--7-5-7/9-------------5/7-|
D|-----------5--5-3-3------------------------------|
A|-------------------------------------------------|
E|-------------------------------------------------|

     C                  Dm           C               F
e|-7-87-----------------------------------------------|
B|-----8h10867----------------------------------------|
G|------------7-7/9---------------------8-8/10--8-6-8-|
D|------------------7h9-9/10-9-7--7-7/9---------------|
A|----------------------------------------------------|
E|----------------------------------------------------|
Tap to rate this tab
 
# A B C D E F G H I J K L M N O P Q R S T U V W X Y Z