Song name
# A B C D E F G H I J K L M N O P Q R S T U V W X Y Z

Jigsaw - Sky High tab

E-------------------------------------------|
B-------------------------------------------|
G-------------------------------------------|
D-------------------------------------------|
A-------------------------------------------|
E--0-0-0-0---0-0-0-0---0-0-0-0---0-0-0-0----|

  Am  G                   Am  Fmaj7
E-----3--3--3--3--(3)-----------------------|
B--1----------------------(1)---1-----------|
G--2----------------------(2)---2-----------|
D--2----------------------(2)---3-----------|
A-----2--2--2--2--(2)-----------------------|
E-----3--3--3--3--(3)-----------------------|


 Am    G              F   Fmaj7 G6
Blown round like the wind

  Am    G          F  Fmaj7 G6
Thrown down in a spin

C                             Fmaj7
I gave you love I thought that we

    Em7             C
Had made it to the top

                        Fmaj7
I gave you all I had to give

    Em7
Why did it have to

  A          C#m              D
Stop you've blown it all sky high

    Dm           A
By telling me a lie

    C#m           D
Without a reason why

        Dm               F
You've blown it all sky high

 A          C#m              D
You you've blown it all sky high

     Dm                A
Our love had wings to fly

    C#m                    D
We could have touched the sky

        Dm               F
You've blown it all sky high


  Am  G                   Am  Fmaj7
E-----3--3--3--3--(3)-----------------------|
B--1----------------------(1)---1-----------|
G--2----------------------(2)---2-----------|
D--2----------------------(2)---3-----------|
A-----2--2--2--2--(2)-----------------------|
E-----3--3--3--3--(3)-----------------------|


Am  G           F    Fmaj7 G6
Up round I've flown       then

 Am   G            F   Fmaj7 G6
Down down like a stone

C                             Fmaj7
I gave you love I thought that we

    Em7             C
Had made it to the top

                        Fmaj7
I gave you all I had to give

    Em7
Why did it have to

  A          C#m              D
Stop you've blown it all sky high

    Dm           A
By telling me a lie

    C#m           D
Without a reason why

        Dm               F
You've blown it all sky high

 A          C#m              D
You you've blown it all sky high

     Dm                A
Our love had wings to fly

    C#m                    D
We could have touched the sky

        Dm               F
You've blown it all sky high

 A          C#m              D
You you've blown it all sky high

    Dm           A
By telling me a lie

    C#m           D
Without a reason why

        Dm               F
You've blown it all sky high

 A          C#m              D
You you've blown it all sky high

     Dm                A
Our love had wings to fly

    C#m                    D
We could have touched the sky

        Dm               F
You've blown it all sky high

Repeat and fade


Chords transcribed by JORGE UMEMARU
Tap to rate this tab
 
# A B C D E F G H I J K L M N O P Q R S T U V W X Y Z