Song name
# A B C D E F G H I J K L M N O P Q R S T U V W X Y Z

Jikustik - Selamat Malam tab

ini lagu jikustik yang paling "asoy" diantara lagu jikustik yang lain menurut
gw...selamat menikmati

Intro:
piano background yang dimana gw masih usahain bwat cari,
Sinthetyzer, ama Drum...

ini gw persingkat aja langsung ke gitarnya,
1|-----------------------------------------------|
2|-----------------------------------------------|
3|-----------------------------------------------| 
4|-----------------------------------------------| 4x
5|-------------------7-5------7--------5-4-------|
6|---7-7--10-7--9-10------5-5------3-3------5----|

 B                         B
jantungku berdetak cepat, inilah waktu yang tepat, 
  B                   B
Segera aku bersiap, Jangan sampaiku terlambat,

Bridge:

G                     A
Malam ini malam minggu
G                     A
Ku menunggu di rumahmu

Chorus: 2x
D
Selamat malam dunia,
C#
ku siap tuk berpesta,
B
tunggu aku disana,
G     A
Bertemu oh baby...


B
gayamu sungguh maksimal...
B
Tak seperti yang ku kenal....
B
malam ini malam cerah...
B
makin larut makin indah...

Bridge:

Chorus: 2x

Interlude: B G A Em 2x

Solo: gw pikir kayak gini kali ya...
1|------------------------------------------------|
2|------------------------------------------------|
3|--------------------9-------11------12------14--|
4|--9-------7-9-------9-------11------12------14--|
5|-----9-10-------7-------9-------10------12------|
6|------------------------------------------------|


1|------------------------------------------------|
2|------------------------------------------------|
3|--------------------7------9------12------14----|
4|--7-------5-7-------7------9------12------14----|
5|-----7-9-------5-------7-------10------12-------|
6|------------------------------------------------|


setelah solo, langung....

Chorus: 2x

ya...gitu-gitu doang sih....

bwat saran bwat perubahan, kirim ke evan.septiawan@gmail.com

gw tunggu !
Tap to rate this tab
 
# A B C D E F G H I J K L M N O P Q R S T U V W X Y Z