Jil Is Lucky - The Wanderer tab

Capo 4th fret

Intro

-----------------------------------------------------------------------------|
------------------------------------------------2---2---2---2----2---2-------|
------------------------------------------------2---2---2---2----2---2-------|
------------------------------------------------2---2---2---2----2---2-------|
---0-1-3-1-3-5-3-1-3-1-0-1----/5-4-3-1-3------0-------0--------0--------0----|
-3--------------------------3---------------------0-------0--------0---------|




Verse 1

         x2              x2               x2              x2
----------------|-----------------|--------------|--------------|------------|
------3-----3---|-----3------3----|----4-----4---|-----3----3---|------------|
------3-----3---|-----3------3----|----5-----5---|-----3----3---|------------|
------0-----0---|-----3------3----|----5-----5---|-----0----0---|------------|
----------0-----|---1-------------|--3-----------|--------0-----|------------|
----3-----------|-----------1-----|--------3-----|---3----------|------------|

There are...     ... job...        ...time...    ...die...



         x2              x2               x2              x2
----------------|-----------------|--------------|--------------|------------|
------3-----3---|-----3------3----|----4-----4---|-----3----3---|------------|
------3-----3---|-----3------3----|----5-----5---|-----3----3---|------------|
------0-----0---|-----3------3----|----5-----5---|-----0----0---|------------|
----------0-----|---1-------------|--3-----------|--------0-----|------------|
----3-----------|-----------1-----|--------3-----|---3----------|------------|


...and lovers...  ...money...      ...hard...     ...side by side...


------------------------------1----1------1------1------------------------|
------2-----2-----2----2------3----3------3------3-----8----8-----8-----8-|
------2-----2-----2----2------2----2------2------2-----8----8-----8-----8-|
------2-----2-----2----2---0------------0--------------8----8-----8-----8-|
1-3-0------------0----------------0------------0-----6----------6---------|
---------0-----------0------------------------------------6-----------6---|


cause the morning always comes...

--------------------------|
----1-----1----1----------|
----2-----2----2----------|
----3-----3----3----------|
-------3------------------|
-1-----------1----1-2-3---|


Chorus

----------------------------------------2----2----|
-----3-----3-----3----3------4----4-----3----3----|
-----3-----3-----3----3------5----5-----2----2----|
-----0-----0-----3----3------5----5---0-----------|
--------0------1-----------3---------------0------|
---3----------------1-----------3-----------------|


--------------------------2----2-----2----2-------|
---3-----3-----4----4-----3----3-----3----3-------|
---3-----3-----5----5-----2----2-----2----2-------|
---0-----0-----5----5---0---------0---------------|
-----0------3---------------0-----------0---------|
-3----------------3-------------------------------|


----------------------------------------2----2----|
-----3-----3-----3----3------4----4-----3----3----|
-----3-----3-----3----3------5----5-----2----2----|
-----0-----0-----3----3------5----5---0-----------|
--------0------1-----------3---------------0------|
---3----------------1-----------3-----------------|


--------------------------2----2-----2----2-------|
---3-----3-----4----4-----3----3-----3----3-------|
---3-----3-----5----5-----2----2-----2----2-------|
---0-----0-----5----5---0---------0---------------|
-----0------3---------------0-----------0---------|
-3----------------3-------------------------------|

Outro same as intro


There are flowers in my room
And they don t need a job
They just need time
To grow and die
And the lovers on their cloud
don t give a shit about the money
They re here to try
To stay side by side
But it s so hard

‘Cause the morning always comes to kill the dream
You had the night before
[Chorus]
Well I m dragging myself all along the pavement
Up in the sky, there s someone behind
And he s guiding my steps
Up and down the life stairs
Helps me thereby leaving again

And I m walking all damned day
Day after day
But it s okay
I m on my way
Wandering again from the West to the East
I try to resist
But it s so hard not to fall

[Chorus]

Well I m dragging myself all along the pavement
Up in the sky, there s someone behind
And he s guiding my steps
Up and down the life stairs
Helps me thereby leaving again
Tap to rate this tab
 
# A B C D E F G H I J K L M N O P Q R S T U V W X Y Z