Song name
# A B C D E F G H I J K L M N O P Q R S T U V W X Y Z

Jill Andrews - Rust Or Gold chords

Highlighted       Show chord diagrams
Artist: Jill Andrews
Song: Rust or Gold
Tuning: Standard (EBGDAE)
Key: Db
---------

[Capo on 1st fret]


Intro: (F    G Am    C    G) 2x


[1st verse]
     F             G  Am
The moon's lit by the sun
                  C                 G
The same as everyone, same as everyone who shines, dear
F                 G   Am                       C
    Home inside your head, you fill it with regret
                G
Fill it with regret, decorate with fear
F             G                  F                G
    Hand to heart, and heart to hand, my hand to you


[Chorus]
         F          C             Dm             Am
Rust or gold, you decide what you see, what you hold
        F                  C              Dm             Am 
Let it burn there in your hand, watch it grow, watch it grow
           F                         C
Breath of life, come and fill your lungs
             Dm              Am
And give it away until it's gone
        F              C          Dm          Am
Hold it in and let it die, let it die, let it die


[2nd verse: arpeggios' tab at the end]
F               G   Am                   C
    Turn away your eyes, from the other side
                G
From the other side of your wishing star
F                        G   Am                     C
    In a route or twist and wind, a garden in your mind
                  G
A garden in your mind, stay right where you are
F             G                  F                G   Am
    Hand to heart, and heart to hand, my hand to you


[Chorus]
         F          C             Dm             Am
Rust or gold, you decide what you see, what you hold
        F                  C              Dm             Am
Let it burn there in your hand, watch it grow, watch it grow
           F                         C
Breath of life, come and fill your lungs
             Dm              Am
And give it away until it's gone
        F              C          Dm         
Hold it in and let it die, let it die, let it die


Solo:
   F           G   Am            C             G        Em
e|--------------------------------------------------------|
B|--------------------------------------------------------|
G|-----5---5---7--9-----9-10-9-7-9----9-10-9-7------------|
D|---7---7-------------------------------------9---9-10-9-|
A|--------------------------------------------------------|
E|--------------------------------------------------------|

   F           G   Am            C             G        Em
e|--------------------------------------------------------|
B|-------------8------------------------------------------|
G|-----5---5------9-----9-10-9-7-9----9-10-9-7------------|
D|-7-----8-------------------------------------9---9-10-9-|
A|--------------------------------------------------------|
E|--------------------------------------------------------|

   F              G             Am                 G
e|--------------------------------------------------------|
B|-10-10-10----8----------------10-10---10-12-10-8--------|
G|----------------7--------------------------------9----7-|
D|------------------------10-9----------------------------|
A|--------------------------------------------------------|
E|--------------------------------------------------------|


[Chorus]
         F          C             Dm             Am
Rust or gold, you decide what you see, what you hold
        F                  C              Dm             Am
Let it burn there in your hand, watch it grow, watch it grow
           F                         C
Breath of life, come and fill your lungs
             Dm              Am
And give it away until it's gone
        F              C          Dm          Am
Hold it in and let it die, let it die, let it die
        F              C          Dm          Am
Hold it in and let it die, let it die, let it die


---------

2nd verse arpeggios' tab (played twice):
   F                 G    Am
e|-6-----6-----6-----8------9--------9--------9--------9-------|
B|---------------------0---------------------------------------|
G|---6-----6-----6----8-8/10-10--10---10--10---10--10---10--10-|
D|--4-4---4-4---4-4------------11-------11-------11-------11---|
A|-------------------------------------------------------------|
E|-------------------------------------------------------------|

   C                                   G
e|---------------------------------------------------------------|
B|-9--------9--------9--------9--------9------9------9------9----|
G|--10--10---10--10---10--10---10--10---0--0---0--0---0--0---0---|
D|----11-------11-------11-------11------10-----10-----10-----10-|
A|---------------------------------------------------------------|
E|---------------------------------------------------------------|

 Tabbed by Camilla Bazzarella
Tap to rate this tab
# A B C D E F G H I J K L M N O P Q R S T U V W X Y Z